Oops, an error
Loading. Please wait.

Buscando Razón Tab

version 1
version 1

Whole song

Interactive

2,433 views 6 this week
no commentswrite comment
1 2 3 4 5
please rate
add to favorites
launch autoscroll
font size
0
reset
how to read this tab
guitar tuner
Autoscroll
slow
fast
+/-
esc
set tempo
stop
Help us to improve Ultimate-Guitar.com Take our survey!
×
Author
Artist: Hermetica
Song: Buscando Razon
Released on: Victimas del Vaciamiento (1994)

Tabbed by: Garci
E-mail: garci.91@hotmail.com

This is actually one of Hermetica's simplest songs, both the riffs and the solo. It's a 
solo for beginners trying to work out a little finger independence and speed (that is, 
you can pull of the last part of the solo, which is rather simple as well).

Riff 1
e|----------------|---------------|----------------|----------|
B|----------------|---------------|----------------|----------|
G|----------------|---------------|----------------|-----0----|
D|-0h2------------|-0h2-----------|-0h2------------|-0h2----2-|
A|-----0h2--------|-----0h2-------|-----0h2--------|----------|
E|---------0--0-0-|---------0--0--|---------0--0-0-|----------|
              x x                              x x

Lyrics:

D              D                         Riff 1
Buscando razon que me impida despreciarte
D                  D                           Riff 1
Nacio esta cancion que tal vez pueda alcanzarte

A                    E
Mi rechazo hacia tus baladas de amor
A                 E
Me llego desde pendejo
A           E
Cuando V8 era mala palabra
C            B                    Riff 1
Se intentaba con vos lavar los cerebros

G                     D
Fuiste azota del jazz-rock,
        C        D       E
reggae, pop, new-wave moderno
G                  C
Hoy cantas tus amorios
       C       D      E
Con fanfarrias de rockero

A                   E
Yo que nunca comparti tu pose Stone
A                      E
Voy a deschavarte el juego
A                E
Sos veleta de la moda y no me asombra
C          B
Que mañana amanezcas metalero

Solo:

e|------------------------------------|---------------------------------|
B|-/12--------15--13-12---------------|---------------------------------|
G|------14-12-----------14--12-14-----|-/12--11-------------------------|
D|--------------------------------12--|----------14-14/16--14--13-13/14-|
A|------------------------------------|---------------------------------|
E|------------------------------------|---------------------------------|

e|----------------------------------------------------------------------|
B|-------------12-13-15-13--12h13h12------------------------------------|
G|----11-12-14-----------------------14-12--11-12-12/14-12--11h12h11----|
D|-14----------------------------------------------------------------12-|
A|----------------------------------------------------------------------|
E|----------------------------------------------------------------------|

e|---------------------------|
B|-/15--13--12---------------|
G|-------------14--12--11-12-|
D|---------------------------|
A|---------------------------|
E|---------------------------|

e|-15--14--12----|-12-14-15--14--12----|-12-14-15--14--12-11--12--14-12-|
B|------------12-|------------------15-|--------------------------------|
G|---------------|---------------------|--------------------------------|
D|---------------|---------------------|--------------------------------|
A|---------------|---------------------|--------------------------------|
E|---------------|---------------------|--------------------------------|

e|-\7-------|--------7h8h10h8h7----7---------------------|
B|-----10-8-|-7h8h10------------10---10h8h7-8h10h8-7h8---|
G|----------|------------------------------------------7-|
D|----------|--------------------------------------------|
A|----------|--------------------------------------------|
E|----------|--------------------------------------------|

e|-15h14h12-14h12----12---------------------------------------------------------|
B|----------------15----15h13h12----12h13h15h13h12----12------------------------|
G|-------------------------------14----------------14----14h12h11h12h14h12h11---|
D|----------------------------------------------------------------------------14|
A|------------------------------------------------------------------------------|
E|------------------------------------------------------------------------------|

This last part is actually quite simple, it's just running up and down the E minor 
It then proceeds to repeat the lyrics.

Have fun learning this song!
Suggest correction
Give kudos to tab author, rate the tab!
1 2 3 4 5
comments
print report bad tab
guest
You may want to rate the tab now too:
select rating
Please do not post tabs as comments. Select "correction" instead!