Oops, an error
Loading. Please wait.

Olvídalo Y Volverá Por Más Tab

version 2
version 2

Whole song

Interactive

990 views 1 this week
no commentswrite comment
1 2 3 4 5
3 more votes to show rating
add to favorites
launch autoscroll
font size
0
reset
how to read this tab
guitar tuner
Autoscroll
slow
fast
+/-
esc
set tempo
stop
Help us to improve Ultimate-Guitar.com Take our survey!
×
E------------------------------------------------|
B--8--8-7---7--8--8--7---7--8--8-7---7--3-3-5---5|
G----0----09-----0-----07-----0----09----0----07-|6 times and then chorus
D------------------------------------------------|
A--7--7-5---5--7--7--5---5--7--7-5---5--2-2-3----|
E------------------------------------------------|
 EN  un avion
E------------------------------------------------|
B------------------------------------------------|
G-4-4-5----4-4-----------4-4-5-5-5---------------|
D-4-4-5----4-4-5--5-7-5--4-4-5-5-5-7-5-----------|
A-2-2-3----2-2-5--5-7-5--2-2-3-3-3-7-5-----------|
E--------------3--3-5-3------------5-3---32530---|

E------------------------------------------------|
B------------------------------------------------|
G-4-4-5----4-4-----------4-4--5-5-5-7-7-7-7-7----|
D-4-4-5----4-4-5--5-7-5--4-4--5-5-5-7-7-7-7-7----|
A-2-2-3----2-2-5--5-7-5--2-2--3-3-3-5-5-5-5-5----|
E--------------3--3-5-3--------------------------|


ending is

D--9-97--9-95--9-9475-|
A--7-75--7-73--7-7523-|

i hope you understand it...is really not a hard song you just got to get the rythm but 
notes are right I'm a 100 % sure

enjoy mofo's
Suggest correction
Give kudos to tab author, rate the tab!
1 2 3 4 5
comments
print report bad tab
guest
You may want to rate the tab now too:
select rating
Wanna post a correction for this tab? Suggest correction