Oops, an error
Loading. Please wait.

Hotaru No Haka Tab

85 views 6 this week
no commentswrite comment
1 2 3 4 5
3 more votes to show rating
add to favorites
launch autoscroll
font size
0
reset
how to read this tab
guitar tuner
Autoscroll
slow
fast
+/-
esc
set tempo
stop
Help us to improve Ultimate-Guitar.com Take our survey!
×
Author
Difficulty
intermediate
Mini suite sobre "La tumba de las luciérnagas" (Hotaru no Haka)


Tab by Avi Yaacov
Israel, September 2016


VERY Beautiful Music from the Japanese animated movie "Grave of the fireflies"
(Hotaru no haka - Isao Takahata - Ghibli studio - 1988)

composer: Michio Mamiya

~~~ Arrangement for guitar by Hernan Gonzalez ("aka Leon Bloy on youtube") ~~~

Available to listen on his website:
http://leonbloyguitar.blogspot.co.il/2011/07/mini-suite-sobre-la-tumba-de-las.html


PART A    00:00

                            rake
e|-------------------7-8-----------5----5-5---5----------------------|
B|-------8----8-8-10-------5-5-6-8----------8-----6-8-5---3-5-6------|
G|--9-10----9------------5---5-------5------------5------------------|
D|-------10-----9------7-----5--------------------7------------------|
A|---------------------------------8------7-------5------------------|
E|--------------------------------------------------------3----------|

e|-----------------7-8--------0-1-3----5-----------0----------------|
B|--8-8--8----8-10-------5-----------------1---1-3-----1-0---1---1--|
G|----9--9---------------5----0----------2-----------------2-----0--|
D|----10-10-----9------7---------------------------------0-----2----|
A|-------------------0---------------------------------------3------|
E|--8---------7---------------3--------1-------0-------3------------|

PART B    00:31

e|-------------------5--8------|---------------------0------0---|
B|--5-------6-8--5--------5----|----5---------6------0------0---|
G|--5----5-------5-5--------5--|--7---5------------7------7-----|
D|-----7---------7------7------|----------8------7------6-------|
A|--0-------0------------------|------------5-------------------|
E|-----------------------------|--6--------------0------0-------|

e|----0-1-3---0--|--------0------|-----------------------0-0---|
B|---------------|----1-3-----1--|------0-1----------0---0-0---|
G|------2-----2--|----2-----2-2--|----2-------2----2---1---1---|
D|----2-----2----|---------------|----------2----------2-------|
A|--0-----0------|---------------|--0------------2-------------|
E|---------------|--1-----1------|--------2------------0-------|

    rake
e|----0---0-1-3---0--|------------0------|-------------------|-------------|
B|----1-3---------1--|----1-0-1-3-----1--|-------------------|------4------|
G|----2-----------2--|----2---------2-2--|----2-0-2-4-5---2--|----2-4---1--|
D|--------------2----|-------------------|--------------2----|----4--------|
A|--0---------0------|-------------------|--0----------------|--2----------|
E|-------------------|--1---------1------|------------2------|----------0--|

PART C    01:00


e|-----------8--------|-----7--------|---------5--------------|
B|-------------8------|-------8---8--|-------5----------------|
G|---------5-------5--|---9-----9----|-----5-------5-------5--|
D|--2-3--5-------5----|-7------------|-7----------------------|
A|--------------------|--------------|---7-------5---7p5------|
E|--------------------|--------------|-------------------8----|

e|----------------------5---------------------|
B|----------5h6---------5------------------3--|
G|----5---5-------5---5--------5---5---5---4--|
D|------5-------5---7------------5------------|
A|--7----------------------7-8-------7---5----|
E|--------------------------------------------|


PART D    01:13


e|-0-1-3-3-3-|--3---5---7---|-8-------0-1-3---5-----------0------------|
B|-----------|--------------|---5-----------------1---1-3---1-0---1----|
G|---------0-|----0---0---0-|-----5-------------2---------------2---0--|
D|-------2---|--------------|---------------------------------------2--|
A|-----3-----|--2-----------|-0-----------------------------------3----|
E|-----------|--------------|---------3-------1-------0-----3----------|


PART E    01:26

                                        rake

e|--0------|--1--3--0-----0--1--3---|----0-------|
B|--0---0--|--3-----0---3----3------|----1-------|
G|--0-3----|--1-----0--------1------|----3-------|
D|---------|------------------------|----1-------|
A|--3------|--3-----3--------3------|----3-------|
E|---------|------------------------|------------|

PART F    01:37

e|-----------|-------------------|-------------|------------------------|
B|--3---1-1--|--3h4---3-4--------|--3-4-6p4-3--|----3-------------------|
G|--0---0-0--|------------5p3-5--|-------------|--3------------5--------|
D|--1---1-1--|-------------------|-------------|------5p3-5------5p3-5--|
A|--3---3-3--|-------------------|-------------|------------------------|
E|-----------|-------------------|-------------|------------------------|

       rake                           rake         rake
e|--3---------|-------------------|----------3-------3-------3-------|
B|------------|--1-3-4--6p4-6-----|--3--4--6-----4---4---6---3---3---|
G|------0^----|----------------3--|-----3------------3---------5-----|
D|------1^----|----------------5--|-----5------------5---------------|
A|------3^----|-------------------|-----3----------------------------|
E|------3-----|---------3---------|--------------------------3-------|

       rake         rake                   rake            rake
e|----------|---------------|-----------|------------|-------3---|
B|----------|---------------|-----------|----1--3-4--|--6-3--3---|
G|--0---0^--|------0-1-0-1--|--0-0-1-3--|--0-0-------|----4------|
D|------1^--|--1-3---0------|----0------|------------|-------5---|
A|------3---|--------2------|----1------|------------|-----------|
E|----------|---------------|-----------|----1-------|----3------|


PART G    02:28

                                    rake
e|----------------------1-------------------------------------------|
B|----4p3-4-------3-4-----4-3--------3------3-----------------3-----|
G|----5-----------5-------------3----3------3-----------------3-----|
D|----5---------5-----------------3--3------------5p3-5-------5-----|
A|--3---------3---------1------------1----1-------------5-----------|
E|--------------------------------------1---1---/-3--------3-----3--|


e|--3----3----3---(3)--|---10vv------------------------------------|
B|--4----3----4----4---|----------8vv-------4--0-------------------|
G|--5----4----3----5---|-------------------------5----5--8--8------|
D|--5----5----5----7---|----9-----8----7--6----5----6----7-----8---|
A|--3----3----3---(3)--|-------------------------------------------|
E|--3------------------|-------------------------------------------|

              rake
e|----10-8---------------------|
B|--8----------8p6-8--8---3----|
G|----------8--8------7---4----|
D|----9--8--7--6----------3----|
A|-----------------------------|
E|--------------------7---3----|

PART H    03:09


   Em                           Am7
             rake                       rake   rake
e|--3p2-3-----------0---2--|--3p2-3-------------0--5-|
B|--0------0---0-----------|--1-------1--1------1----|
G|--0------0---0-----------|-----------0-2------2----|
D|--2------2---1-0------0--|----------2--2------2----|
A|--2--------2--------2----|--0-----------------0----|
E|--0----------0----0------|-------------------------|


    D                       G            B7/D

e|--2p0-2---------0---0--|----------------------2---0-|
B|---------3-3--3---3----|--0---0----0--------0-------|
G|--2------2-2--1---0-0--|----2----0--------2---------|
D|--0------0----0---0----|---------0------0-----------|
A|-----------------------|--------------2-------2-----|
E|-----------------------|--3-------------------------|


   Em                           Am7

e|------------------------|---------------------5--|
B|--8p7-8-------------7---|--8-7-8--8-5--8------8--|
G|--0--------9-----9------|-----------5----5-------|
D|---------9-----9-9------|---------5---------5----|
A|------------------------|--0-----------0---------|
E|--0----------0----------|------------------------|

    D                       G            B7/D
              rake
e|---------------0----0--|----------------------2---0-|
B|--7p5-7---0--3----3----|--0---0----0--------0-------|
G|--7-----7----2---------|----2----0--------2---------|
D|--0----------0----0----|---------0------0-----------|
A|-----------------------|--------------2-------2-----|
E|-----------------------|--3-------------------------|

   rake                                   rake                                rake
e|--7---5---------------------------------------7------7---7----------------|-----|
B|----5---5-8--5-7-8---10-8-10-----------7-8-10----------8---10--7---7------|--7--|
G|-------------5-5---------------7-----7---7---------7-----------7-9--------|--7--|
D|--7--------------------------9-----9-----9-------9-------------9-----9vv--|--9--|
A|--0------------------------------7-----------------------------7----------|--7--|
E|---------------------7-------------------7--------------------------------|-----|


PART I    4:05


e|----------2-----2--|-----------2-----0--|-----0-----0-------|-----0-----0--------|
B|--------------3----|---------------3----|-------0---------0-|-------0---------0--|
G|--------0---0------|--------0----0------|---------5-----5---|---------5-----5----|
D|------4------------|------4-------------|---------5---5-----|---------5---5------|
A|----2--------------|----2---------------|--0----------------|--0-----------------|
E|--0----------------|--0-----------------|-------------------|--------------------|


e|----0-----5-7-------------0------------|
B|------0-------0---------0---------0----|
G|--------5-------5-----5---------5------|
D|--------5-----------5---------5--------|
A|--0---------------0--------------------|
E|---------------------------------------|


e|--5p3-2----------------------------0---------|
B|--------0-------3--------------3-------------|
G|--------------0---0----------0---0---0---0---|
D|------------0--------------------------0-----|
A|----------2----------------------------------|
E|--0-----------------------0------------------|

e|------10----------------|----------8p7-----------|
B|--7h8----8----8---------|----5-------------5-----|
G|----------------9----9--|------5-------------5---|
D|-----------10-----10----|--------5------5--------|
A|--0---------------------|--0---------------------|
E|------------------------|------------------------|

e|--5p3-2-----------------------------------0h2-0--|------0-----------------0--|
B|--------------3-----3-----------3-------3--------|-------------0------0------|
G|------------0-----0-------0---0-------0----------|----0------0------0---0----|
D|----------------0-----------0-------0------------|---------0-----------------|
A|---------2---------------------------------------|--2------------------------|
E|--0---------------------0-----------------0------|----------------0----------|

PART J    4:42

                                                        rake
e|--12-----10p8-10-----|-7-8-----7p5-7-----|-0-2------------------|
B|-----8-----------8---|-----5---------5---|-------------3--------|
G|-------9-----------9-|-------5---------5-|----------0--0------0-|
D|---------------------|-------------------|--------0----0----0---|
A|---------------------|---0---------0-----|------2------2--------|
E|--8------------------|-------------------|---0------------0-----|

           Em

e|----------7----------0--2p0-2-----------------------0--------|
B|-----8-10---8-----------------0---3-3-------0---------0------|
G|--------------9-----------------0-------0-------2h4-----0-0--|
D|----------------9---------------------0-----------------0----|
A|------------7-----------------------2---------2--------------|
E|--0---------------0---------------0---------0----------------|

PART K    4:57


e|--0-----2--------|--------0----------|----------0--------|----------0--------|
B|----0-----3------|----------0--------|----------------3--|--------------0----|
G|------0-----0----|------2-----2------|--------0-----0----|--------0-------0--|
D|--------------2--|----2---------2-2--|------4-----4------|------4-----4------|
A|--3--------------|--0----------------|----2--------------|----2--------------|
E|-----------------|-------------------|--0----------------|--0----------------|


e|----------0---3-----------------------|--------------------|--2---------0-2-0---|
B|--------1---1---1--------3------------|--0--------------3--|----0---0-3---------|
G|------4--------------------0---X---0--|----2-0-2------0----|------2-------------|
D|----2----------------2-------2---2----|----------4---------|--------------0-----|
A|--0----------------0------------------|----2--------2------|--------2-----------|
E|--------------------------------------|--0-----------------|--0-----------------|

e|--5-7-----0-0------|-----0-----0--------|
B|------0-------0----|-------0-----0------|
G|--------5---5---5--|---------5-----5----|
D|----------5--------|---------5-------5--|
A|--0----------------|--0-----------------|
E|-------------------|--------------------|


PART L    5:27


e|------0----------0------|-----------------------------------|
B|--------7----------0----|-------7-8-7--------------0-----0--|
G|----------7----------7--|-----9-------9---7-5----5-----5----|
D|------------9-----------|----------------------7-----7------|
A|------------------------|-----------0-----0-----------------|
E|--0---------------------|--0--------------------------------|

e|---------0------0----|--2-3-2-0-------0-2----------|
B|-----------1------1--|----------3---3-----3---0-3--|
G|------4------4-------|-----------------------------|
D|----2----------------|------------0---------0------|
A|--0------------------|--------2-----------2--------|
E|---------------------|--0---------------0----------|


                                               rake
e|-------2----------------------------------0---2---|
B|---------3---3-----------------------3--------0---|
G|-----------4---4---4---4-----------2----------0---|
D|----2------------5---5-------2-5-2------------4---|
A|--0------------------------0------------------2---|
E|----------------------------------------------0---|



************************************

| (n)  Ghost note
| h    Hammer-on
| p    Pull-off
| /    Slide up
| X    dead note

************************************
Suggest correction
Give kudos to tab author, rate the tab!
1 2 3 4 5
comments
print report bad tab
guest
You may want to rate the tab now too:
select rating
Wanna post a correction for this tab? Suggest correction