Oops, an error
Loading. Please wait.

Deshacer El Mundo Tab

version 1
version 1

Whole song

Interactive

20,656 views 18 this week
2 commentsread comments
1 2 3 4 5
accurate
x 8
add to favorites
launch autoscroll
font size
0
reset
how to read this tab
guitar tuner
Autoscroll
slow
fast
+/-
esc
set tempo
stop
Help us to improve Ultimate-Guitar.com Take our survey!
×
Author
-=Intro & Verso 1=-
        Dm
Empezar porque si
                 C
y acabar no se cuando
    A5         
el azul me da cielo
     Dm
y el iris los cambios.
                         C
Los astros no están mas lejos
                           A#
que los hombres que trato 
                                     Dm
repito otras voces, que siento como mías
         A#                                  Am
y se encierran en mi cuerpo, con rumor de mar gruesa.

-=Coro=-
                      Dm
Te he dicho que no mires atrás
            F
porque el cielo no es tuyo
              A#
y hay que empezar despacio
              Am
a deshacer el mundo.

-=Verso 2=-
      Dm
El aliento de la tierra 
      C      
y su calma serena 
      A5
y la sombra de la tarde 
            Dm
que es una mano que tiembla. 
                     C
La música me abre secretos 
                             A#
que ahora están dentro de mí. 

Al final después de todo 
              Dm
no somos tan distintos. 
    A#
Un oasis en desierto 
                  Am
donde queda la paciencia.

-=Coro=-
                      Dm
Te he dicho que no mires atrás
            F
porque el cielo no es tuyo
              A#
y hay que empezar despacio
              Am
a deshacer el mundo. x2

A#   C    (Eh!!!)





-=Interlude=-
F   A5   Dm   A#   C   -   F   A5  Dm  A#   C

          F    A5    Dm    A#     C
Ponme fuera del alcance del bostezo universal
       Dm  A5    A#    F      C
nos veremos en el exilio, o en una celda.
           Dm  A5   A#    F    C
Ponme fuera del reposo, en mi historia personal
       F  A5   Dm  A#      C      A#
soy un ave rapaz, mirad mis alas.

-=Solo=- Dm    C    A#    C    A#    Am
e|---------------------------------------------------|-----------------------|
B|---------------------------------------------------|-----------------------|
G|-m5--m5--m5--m5--5--5--5---m5----------------------|-----------------------|
D|-------------------------------8--7--8--7----------|------------5--7p5-----|
A|-------------------------------------------7/8--8--|-5~-3/5--8----------8--|
E|---------------------------------------------------|-----------------------|

e|-----------------------------|-------------------------------------8--10--10—-|
B|-----------------------------|-------------------------5--6--8/10-------------|
G|---------------5--5--7p5-----|-7b9--5b7--7p5-----5--7-------------------------|
D|------------7-------------7--|----------------7-------------------------------|
A|-5--3--3/5-------------------|------------------------------------------------|
E|-----------------------------|------------------------------------------------|

e|-8------8--------------------|---------12/13--13p12------------------------------|
B|----10-----10--8--10---------|-----13-----------------13-------------------------|
G|----------------------10--9--|-12-------------------------12--10--9/10--5--------|
D|-----------------------------|---------------------------------------------5-----|
A|-----------------------------|------------------------------------------------8--|
E|-----------------------------|---------------------------------------------------|

e|--------------------------------------------|-----6---------------------------|
B|--------------------------------------------|-----6---------------------------|
G|----------------------4--5--4h5p4-----------|------------------------7p5h7p5--|
D|----------------5--7---------------7--5-----|--------------------m8-----------|
A|-*7~~/5/7--5h7---------------------------8--|----------------m8---------------|
E|--------------------------------------------|-/6~~---m5--m6-------------------|

e|---------------------------|--------------------------------------------------|
B|---------------------------|--------------------------------------------------|
G|---------------------------|--------------------7p5h7p5-----------------------|
D|-8--7----------------------|----------------m8-----------8-7------------------|
A|--------m7--m8--m7---------|------------m8--------------------m7--m8----------|
E|--------------------m8--5--|-6~~m5--m6--------------------------------m8--m5--|

e|----------------------------------------------|-------------------------------|
B|----------------6p5h6p5-----------------------|----------------6p5h6p5-----5—-|
G|-------------7-----------7--7-----------------|-------------7-----------7-----|
D|----------7--------------------8--7-----------|----------7--------------------|
A|-5~~---5-----------------------------8--------|-5-----5-----------------------|
E|----5-----------------------------------8--5--|----5--------------------------|

e|-----------------------|-5/6--6--5-----5--6--8--6--5-----6--5-----5-----------|
B|-6--8--5h6p5-----5--6--|------------8-----------------8--------8-----8--6-----|
G|--------------7--------|---------------------------------------------------7—-|
D|-----------------------|------------------------------------------------------|
A|-----------------------|------------------------------------------------------|
E|-----------------------|------------------------------------------------------|

e|-----------------|--------------------------------6--8--10--12--13--15--13—15--|
B|-6--8/10--8------|----------------------6--8--10-------------------------------|
G|-------------10--|-------------5--7--8-----------------------------------------|
D|-----------------|-8--5--7--8--------------------------------------------------|
A|-----------------|-------------------------------------------------------------|
E|-----------------|-------------------------------------------------------------|



e|-13h15p13p12h12--|-15b17--17h18p17p15h17--18--20--17h18p17--15--|
B|-----------------|----------------------------------------------|
G|-----------------|----------------------------------------------|
D|-----------------|----------------------------------------------|
A|-----------------|----------------------------------------------|
E|-----------------|----------------------------------------------|

e|-15w17w15w17w15w17w15--18--17--15--------------------------------------|                   
B|-----------------------------------18--17--15--------------------------|
G|-----------------------------------------------17--15--14--------------|
D|-----------------------------------------------------------17--15--14--|
A|-----------------------------------------------------------------------|
E|-----------------------------------------------------------------------|

                   Dm
Te he dicho que no mires atrás
           F
porque el cielo no es tuyo
              A#
y hay que empezar despacio
              Am
a deshacer el mundo. x2

-=Final=- A#, C, A#, C, A
            Si !!!! . . .
. . . eso es.


Tab by: Ramón Guillermo Galáz Rios    Tijuana, BC, México.
Suggest correction
What's this?
You can suggest a correction to this tab. Community and Mods will review your correction and vote to approve or reject it.
comments
print report bad tab
2 comments total.
+1 reply
0firefly0 13 wrote on January 25 2008, 01:12 am

muy bien hecho
me encanta tocar esta canción Y cantarle al la audiencia
Muchas Gracias

0 reply
ragarideath 617 wrote on September 18 2009, 09:38 pm

Gracias a ti por prestarle atención y tomarte el tiempo de dejar tu mensaje, suerte ...

guest
You may want to rate the tab now too:
select rating
Please do not post tabs as comments. Select "correction" instead!