Oops, an error
Loading. Please wait.

Venezuela Ukulele Chords

266 views 3 this week
no commentswrite comment
1 2 3 4 5
3 more votes to show rating
add to favorites
launch autoscroll
font size
0
reset
transpose
0
reset
display chords
guitar tuner
Autoscroll
slow
fast
+/-
esc
set tempo
stop
Help us to improve Ultimate-Guitar.com Take our survey!
×
Author
Difficulty
novice
First tab
Enjoy :)

Venezuela
Pablo Herrero y Jose Luis Armenteros

Llevo tu luz y tu aroma en mi piel, y el cuatro en el corazón.
Llevo en mi sangre la espuma del mar y tu Horizonte en mis ojos.

G |---------------------------------------------|
C |---------------------------------------------|
E |-0-02------0--0-02---------------4--------2-4|
A |--0--0-5420----0--0-54---44454220-0--22242-0-|


No envidio el vuelo ni el nido al turpial. Soy como el viento en la mies.
Siento el caribe como una mujer. Soy asi, que voy a hacer.

G |--------------------------------------------|
C |--------------------------------------------|
E |-0--------0--0-02-------------------------0-|
A |--00202420----0--0-54---44220-457754-02420-0|

Soy desierto, selva, nieve y volcán, y al andar dejo mi estela.
El rumor del llano en una canción, que me desvela.

G |--------------------------------------------|
C |--------------------------------------------|
E |----------------------4---02--0--0-----0----|
A |-457-47-49754-024-9520------0--2--4570--0420|

La mujer que quiero tiene que ser, corazón, fuego, y espuela.
Con la piel tostada como una flor, de Venezuela.

G |--------------------------------------------|
C |--------------------------------------------|
E |----------------------4---02--0--0-----0----|
A |-457-47-49754-024-9520------0--2--4570--0420|

Con tu paisaje y tus sueños me iré, por esos mundos de Dios.
Y tus recuerdos al atardecer, me harán más corto el camino.

G |---------------------------------------------|
C |---------------------------------------------|
E |-0-02------0--0-02---------------4--------2-4|
A |--0--0-5420----0--0-54---44454220-0--22242-0-|

Entre tus playas quedó mi niñez, tendida al viento y al sol.
Y esa nostalgia que sube a mi voz, sin querer se hizo canción.

G |--------------------------------------------|
C |--------------------------------------------|
E |-0--------0--0-02-------------------------0-|
A |--00202420----0--0-54---44220-457754-02420-0|

De los montes quiero la inmensidad, y del río la acuarela.
Y de ti los hijos que sembrarán, nuevas estrellas.

G |--------------------------------------------|
C |--------------------------------------------|
E |----------------------4---02--0--0-----0----|
A |-457-47-49754-024-9520------0--2--4570--0420|

Y si un día tengo que naufragar, y el tifón rompre mis velas.
Enterrad mi cuerpo cerca del mar, en Venezuela.

G |--------------------------------------------|
C |--------------------------------------------|
E |----------------------4---02--0--0-----0----|
A |-457-47-49754-024-9520------0--2--4570--0420|
Suggest correction
Give kudos to tab author, rate the tab!
1 2 3 4 5
comments
print report bad tab
guest
You may want to rate the tab now too:
select rating
Wanna post a correction for this tab? Suggest correction