Oops, an error
Loading. Please wait.

What Once Was tab

by Her's
2,798 views 78 this week
1 commentread comment
1 2 3 4 5
x 6
add to favorites
×
Save as Personal and add changes to this tab that will be seen only by you. Learn more ›
×
You can save this tab as Personal to edit and correct it or add notes. All changes will be seen only by you. Learn more »
launch autoscroll
font size
0
reset
how to read this tab
guitar tuner
edit
Autoscroll
slow
fast
+/-
esc
set tempo
stop
I used this video https://www.youtube.com/watch?v=x6r896X2VyA as a reference
All notes are relative to Capo II


[Intro]

e|----------0------|----------0------|-0-----------0--------|
B|-0h2--------2----|-0h2--------2----|-2\5---5-------4------|
G|-----2--------2--|-----2--------2--|-2\4-----4------4-----|
D|-------4---------|-------4---------|-4\6-------6----------|
A|-----------------|-----------------|----------------------|
E|-----------------|-----------------|----------------------| x3

e|----------0------|----------0------|-0-----------0--------|
B|-0h2--------2----|-0h2--------2----|-2\5---5-------4------|
G|-----2--------2--|-----2--------2--|-2\4-----4------------|
D|-------4---------|-------4---------|-4\6-------6----------|
A|-----------------|-----------------|----------------------|
E|-----------------|-----------------|----------------------|

e|-------0------------0-------|-----------0-------|-------0------|
B|-2-------2----2-------2-----|-2\9-9-------9-----|-4-------4----|
G|---2-------2----2-------2---|-2\9---9-------9---|---4-------4--|
D|-----2------------2---------|-2\9-----9---------|-----4--------|
A|----------------------------|-------------------|--------------|
E|-2------------2-------------|-2\9-9-------------|-4------------| 

e|-------0------------0-------|-----------0-------|-------0------|
B|-2-------2----2-------2-----|-2\9-9-------9-----|-4-------4----|
G|---2-------2----2-------2---|-2\9---9-------9---|---4-------4--|
D|-----2------------2---------|-2\9-----9---------|-----4--------|
A|----------------------------|-------------------|--------------|
E|-2------------2-------------|-2\9-9-------------|-4------------| 

e|-------0------------0-------|-----------0-------|-------0------|
B|-2-------2----2-------2-----|-2\9-9-------9-----|-4-------4----|
G|---2-------2----2-------2---|-2\9---9-------9---|---4-------4--|
D|-----2------------2---------|-2\9-----9---------|-----4--------|
A|----------------------------|-------------------|--------------|
E|-2------------2-------------|-2\9-9-------------|-4------------| 

e|-------0------------0-------|-----------0-------0-|
B|-2-------2----2-------2-----|-2\9-9-------9-----4-|
G|---2-------2----2-------2---|-2\9---9-------9---4-|
D|-----2------------2---------|-2\9-----9---------4-|
A|----------------------------|-------------------x-|
E|-2------------2-------------|-2\9-9-------------4-|


[Verse]

e|----------------------------|----------------|-----------------|
B|-------2--------------2-----|-2/9------9-----|--9/4------4-----|
G|-----2---2----------2---2---|-2/9----9---9---|--9/4----4---4---|
D|---2-------2------2-------2-|-2/9--9-------9-|--9/4--4-------4-|
A|----------------2-----------|----------------|-----------------| Repeat until chorus
E|-2------------2-------------|-2/9------------|--9/4------------| Listen to the song to see when to strum


[Chorus]

e|----------------------------|-------0------------0-----|
B|-------5------------5-------|-7-------7----7-------7---|
G|-6-------6----6-------6-----|---4-------4----4-------4-|
D|---7-------7----7-------7---|-----6------------6-------|
A|-----7------------7---------|-7------------7-----------|
E|-5------------5-------------|--------------------------|

e|----------------------------|--------------------------|
B|-0------0------0------0-----|-4-----2------------------|
G|---1------1------1------1---|---2-----2-----4-----2----|
D|-----2------2------2------2-|-----2-----2-----2-----2--|
A|-4------4------4------4-----|-4-----4-----4-----2------|
E|----------------------------|--------------------------|

e|----------------------------|-------0------------0-----|
B|-------5------------5-------|-7-------7----7-------7---|
G|-6-------6----6-------6-----|---4-------4----4-------4-|
D|---7-------7----7-------7---|-----6------------6-------|
A|-----7------------7---------|-7------------7-----------|
E|-5------------5-------------|--------------------------|

e|----------------------------|--------------0-----------|
B|-0------0------0------0-----|-4-----2------0-----------|
G|---1------1------1------1---|---2-----2----2-----------|
D|-----2------2------2------2-|-----2-----2--1-----------|
A|-4------4------4------4-----|-4-----4------2-----------|
E|----------------------------|--------------x-----------|

e|-------0------------0-------|-----------0-------|-------0------|
B|-2-------2----2-------2-----|-2\9-9-------9-----|-4-------4----|
G|---2-------2----2-------2---|-2\9---9-------9---|---4-------4--|
D|-----2------------2---------|-2\9-----9---------|-----4--------|
A|----------------------------|-------------------|--------------|
E|-2------------2-------------|-2\9-9-------------|-4------------| 

e|-------0------------0-------|-----------0-------|-------0------|
B|-2-------2----2-------2-----|-2\9-9-------9-----|-4-------4----|
G|---2-------2----2-------2---|-2\9---9-------9---|---4-------4--|
D|-----2------------2---------|-2\9-----9---------|-----4--------|
A|----------------------------|-------------------|--------------|
E|-2------------2-------------|-2\9-9-------------|-4------------| 

e|-------0------------0-------|-----------0-------|-------0------|
B|-2-------2----2-------2-----|-2\9-9-------9-----|-4-------4----|
G|---2-------2----2-------2---|-2\9---9-------9---|---4-------4--|
D|-----2------------2---------|-2\9-----9---------|-----4--------|
A|----------------------------|-------------------|--------------|
E|-2------------2-------------|-2\9-9-------------|-4------------| 

e|-------0------------0-------|-----------0-------0-|
B|-2-------2----2-------2-----|-2\9-9-------9-----4-|
G|---2-------2----2-------2---|-2\9---9-------9---4-|
D|-----2------------2---------|-2\9-----9---------4-|
A|----------------------------|-------------------x-|
E|-2------------2-------------|-2\9-9-------------4-|


[Verse]

e|----------------------------|----------------|-----------------|
B|-------2--------------2-----|-2/9------9-----|--9/4------4-----|
G|-----2---2----------2---2---|-2/9----9---9---|--9/4----4---4---|
D|---2-------2------2-------2-|-2/9--9-------9-|--9/4--4-------4-| He strums through this the first time
A|----------------2-----------|----------------|-----------------| Repeat until chorus
E|-2------------2-------------|-2/9------------|--9/4------------| Listen to the song to see when to strum


[Chorus]

e|----------------------------|-------0------------0-----|
B|-------5------------5-------|-7-------7----7-------7---|
G|-6-------6----6-------6-----|---4-------4----4-------4-|
D|---7-------7----7-------7---|-----6------------6-------|
A|-----7------------7---------|-7------------7-----------|
E|-5------------5-------------|--------------------------|

e|----------------------------|--------------------------|
B|-0------0------0------0-----|-4-----2------------------|
G|---1------1------1------1---|---2-----2-----4-----2----|
D|-----2------2------2------2-|-----2-----2-----2-----2--|
A|-4------4------4------4-----|-4-----4-----4-----2------|
E|----------------------------|--------------------------|

e|----------------------------|-------0------------0-----|
B|-------5------------5-------|-7-------7----7-------7---|
G|-6-------6----6-------6-----|---4-------4----4-------4-|
D|---7-------7----7-------7---|-----6------------6-------|
A|-----7------------7---------|-7------------7-----------|
E|-5------------5-------------|--------------------------|

e|----------------------------|--------------0-----------|
B|-0------0------0------0-----|-4-----2------0-----------|
G|---1------1------1------1---|---2-----2----2-----------|
D|-----2------2------2------2-|-----2-----2--1-----------|
A|-4------4------4------4-----|-4-----4------2-----------|
E|----------------------------|--------------x-----------|


[Outro]

"Ooooos"
e|-------0------------0-------|-----------0-------|-------0------|
B|-2-------2----2-------2-----|-2\9-9-------9-----|-4-------4----|
G|---2-------2----2-------2---|-2\9---9-------9---|---4-------4--|
D|-----2------------2---------|-2\9-----9---------|-----4--------|
A|----------------------------|-------------------|--------------|
E|-2------------2-------------|-2\9-9-------------|-4------------| 

e|-------0------------0-------|-----------0-------|-------0------|
B|-2-------2----2-------2-----|-2\9-9-------9-----|-4-------4----|
G|---2-------2----2-------2---|-2\9---9-------9---|---4-------4--|
D|-----2------------2---------|-2\9-----9---------|-----4--------|
A|----------------------------|-------------------|--------------|
E|-2------------2-------------|-2\9-9-------------|-4------------| 

e|-------0------------0-------|-----------0-------|-------0------|
B|-2-------2----2-------2-----|-2\9-9-------9-----|-4-------4----|
G|---2-------2----2-------2---|-2\9---9-------9---|---4-------4--|
D|-----2------------2---------|-2\9-----9---------|-----4--------|
A|----------------------------|-------------------|--------------|
E|-2------------2-------------|-2\9-9-------------|-4------------| 

e|-------0------------0-------|-----------0-------0-|
B|-2-------2----2-------2-----|-2\9-9-------9-----4-|
G|---2-------2----2-------2---|-2\9---9-------9---4-|
D|-----2------------2---------|-2\9-----9---------4-|
A|----------------------------|-------------------x-|
E|-2------------2-------------|-2\9-9-------------4-|

e|----------------------------|--0--0--0--0--0--0---|
B|-5--5--5--5--5--5-----------|--7--7--7--7--7--7---|
G|-6--6--6--6--6--6-----------|--4--4--4--4--4--4---|
D|-7--7--7--7--7--7-----------|--6--6--6--6--6--6---|
A|-7--7--7--7--7--7-----------|--7--7--7--7--7--7---|
E|-5--5--5--5--5--5-----------|---------------------|

e|----------------------------|--------------------------|
B|-0------0------0------0-----|-4-----2------------------|
G|-1------1------1------1-----|-2-----2-----4-----2------| I think this part is the chorus strummed
D|-2------2------2------2-----|-2-----2-----2-----2------|
A|-4------4------4------4-----|-4-----4-----4-----2------|
E|----------------------------|--------------------------|

"Oooos again"
e|-------0------------0-------|-----------0-------|-------0------|
B|-2-------2----2-------2-----|-2\9-9-------9-----|-4-------4----|
G|---2-------2----2-------2---|-2\9---9-------9---|---4-------4--|
D|-----2------------2---------|-2\9-----9---------|-----4--------|
A|----------------------------|-------------------|--------------|
E|-2------------2-------------|-2\9-9-------------|-4------------| 

e|-------0------------0-------|-----------0-------|-------0------|
B|-2-------2----2-------2-----|-2\9-9-------9-----|-4-------4----|
G|---2-------2----2-------2---|-2\9---9-------9---|---4-------4--|
D|-----2------------2---------|-2\9-----9---------|-----4--------|
A|----------------------------|-------------------|--------------|
E|-2------------2-------------|-2\9-9-------------|-4------------| 

e|-------0------------0-------|-----------0-------|-------0------|
B|-2-------2----2-------2-----|-2\9-9-------9-----|-4-------4----|
G|---2-------2----2-------2---|-2\9---9-------9---|---4-------4--|
D|-----2------------2---------|-2\9-----9---------|-----4--------|
A|----------------------------|-------------------|--------------|
E|-2------------2-------------|-2\9-9-------------|-4------------| 

e|-------0------------0-------|---0--0--0--0--0-----|
B|-2-------2----2-------2-----|-2\9--4--4--3--2-----|
G|---2-------2----2-------2---|-2\9--4--4--3--2-----|
D|-----2------------2---------|-2\9--4--4--3--2-----|
A|----------------------------|---x--x--x--x--x-----|
E|-2------------2-------------|-2\9--4--4--3--2-----|



************************************

| x  Dead note
| h  Hammer-on
| /  Slide up
| \  Slide down

************************************

            
            
Suggest correction
Creating personal tab
Creating personal tab
You can edit any tab online and save it as your Personal.

You can edit, replace or remove any tab part or add personal notes – all changes will be seen only by you.

Personal tabs can be accessed anytime from any device, even offline.
Learn more »
comments
print report bad tab
1 comment total.
+1 reply
albertovilla93 130 Jan 11, 2017 12:25 AM

Thank you so much for this! I love this song so much. Well done

guest
You may want to rate the tab now too:
select rating
Wanna post a correction for this tab? Suggest correction