Oops, an error
Loading. Please wait.

6 Months Chords

version 8
version 8
2,788 views 1 this week
1 commentread comment
1 2 3 4 5
please rate
add to favorites
launch autoscroll
font size
0
reset
transpose
0
reset
simplify chords
display chords
guitar tuner
Autoscroll
slow
fast
+/-
esc
set tempo
stop
Help us to improve Ultimate-Guitar.com Take our survey!
×
Author
-----------------------------------------------------------------------------
                             SIX MONTHS - Hey Monday
-----------------------------------------------------------------------------
Tabbed by: kcirtaps

Tuning: Standard (EADGBe)


Chords used:

Asus4 - x02230
D5 - x0023x
G - x55xxx
Bm7 - x2023x
Cadd9 - x32033
D - xx0232
A - x02220
Em - 022xxx

Intro:

e|--------------------------------|
B|-3-3-3-3-3-3-3-3-3-3-3-3-3-3-3--|
G|-2-2-2-2-2-2-2-2-2-2-2-0-0-0-0--|
D|-2-2-2-2-2-2-2-0-0-0-0-0-0-0-0--|
A|-0-0-0-0-0-0-0-0-0-0-0-0-0-0-0--|
E|--------------------------------|

e|--------------------------------|
B|-3-3-3-3-3-3-3-3-3-3-3-3~-------|
G|-2-2-2-2-2-2-2-2-2-2-2-0~-------|
D|-2-2-2-2-2-2-2-0-0-0-0-0~-------|
A|-0-0-0-0-0-0-0-0-0-0-0-0~-------|
E|--------------------------------|

Asus4                     Bm7        Cadd9
You're the direction I follow to get home
Asus4                      Bm7               Cadd9
When I feel like I can't go on, you tell me to go
Asus4                           Bm7               Cadd9
And it's like I can't feel a thing without you around
Asus4                        Bm7
And don't mind me if I get weak in the knees
    Cadd9                          
'cause you have that effect on me, you do

D
Everything you say
Asus4          A       Em
Everytime we kiss, I can't think straight
    G
But I'm okay
D                Asus4       A
And I can't think of anybody else
     Em                       G
Who I hate to miss as much as I hate missing you

Interlude:

e|----------------------------|
B|-3-3-3-3-3-3-3-3-3-3-3-3~---|
G|-2-2-2-2-2-2-2-2-2-2-2-0~---|
D|-2-2-2-2-2-2-2-0-0-0-0-0~---|
A|-0-0-0-0-0-0-0-0-0-0-0-0~---|
E|----------------------------|


Verse

Chorus

Bridge:

e|-------------------------------------------|  
B|-3-3-3-3-3-3-3-3-3-3-3-3-3-3-3~------------|
G|-2-2-2-2-2-2-2-2-2-2-2-0-0-0-0~------------|
D|-2-2-2-2-2-2-2-0-0-0-0-0-0-0-0~------------|
A|-0-0-0-0-0-0-0-0-0-0-0-0-0-0-0~------------|
E|-------------------------------------------|

So please, give me your hands
So please, give me a lesson on how to steal, steal the heart
Bm7                     Em         G
As fast as you stole mine, as you stole mine

Verse - no words

Chorus

Outro:

So please, give me your hands
So please, just take my hand.

e|-------------------------------|
B|-3-3-3-3-3-3-3-3-3-3-3-3~~-----|
G|-2-2-2-2-2-2-2-2-2-2-2-0~~-----|
D|-2-2-2-2-2-2-2-0-0-0-0-0~~-----|
A|-0-0-0-0-0-0-0-0-0-0-0-0~~-----|
E|-------------------------------|
Suggest correction new What's this?
You can suggest a correction to this tab. Community and Mods will review your correction and vote to approve or reject it.
comments
We did not receive enough feedback on this tab! Please rate:
print report bad tab
1 2 3 4 5
1 comment total.
0 reply
cdmosser 61 wrote on September 18 2013, 02:37 am

Check out my cover of this song! http://www.youtube.com/watch?v=RX58-KJHe7k

guest
You may want to rate the tab now too:
select rating
Please do not post tabs as comments. Select "correction" instead!