Oops, an error
Loading. Please wait.

Arizona Bass Tab

2,474 views 1 this week
no commentswrite comment
1 2 3 4 5
accurate
x 4
add to favorites
launch autoscroll
font size
0
reset
guitar tuner
Autoscroll
slow
fast
+/-
esc
set tempo
stop
Help us to improve Ultimate-Guitar.com Take our survey!
×
Tuning E, A, D, G

| |-----11--------11-------11-------11-------9-------9-------9-------9---|
|o|---9----9----9----9---9----9---9----9---7---7---7---7---7---7---7---7-|
|o|-9---------9--------9--------9--------7-------7-------7-------7-------|
| |----------------------------------------------------------------------|

|-------14----------14----------14----------14----|
|----12----12----12----12----12----12----12----12-|
|-12----------12----------12----------12----------|
|-------------------------------------------------|

                                       x2
|-----11-------11-------11-------11---| |
|---9----9---9----9---9----9---9----9-|o|
|-9--------9--------9--------9--------|o|
|-------------------------------------| |

|------------|
|------------|
|-7~~~~9~~~~-|
|------------|

                                                        x4
| |----------------------------------------------------| |
|o|----------------------------------------------------|o|
|o|-77777777-99999999-44444444-12-12-12-12-12-12-12-12-|o|
| |----------------------------------------------------| |

| |-----11--------11-------11-------11-------9-------9-------9-------9---|
|o|---9----9----9----9---9----9---9----9---7---7---7---7---7---7---7---7-|
|o|-9---------9--------9--------9--------7-------7-------7-------7-------|
| |----------------------------------------------------------------------|

|-------14----------14----------14----------14----|
|----12----12----12----12----12----12----12----12-|
|-12----------12----------12----------12----------|
|-------------------------------------------------|

                                       x3
|-----11-------11-------11-------11---| |
|---9----9---9----9---9----9---9----9-|o|
|-9--------9--------9--------9--------|o|
|-------------------------------------| |

|------------|
|------------|
|-7~~~~9~~~~-|
|------------|

                                                        x4
| |----------------------------------------------------| |
|o|----------------------------------------------------|o|
|o|-77777777-99999999-44444444-12-12-12-12-12-12-12-12-|o|
| |----------------------------------------------------| |

                                             x2
| |-----------------------------------------| |
|o|-----------------------------------------|o|
|o|-4-4-4-4--7-7-7-7--9-9-9-9--12-12-12-12--|o|
| |-----------------------------------------| |

Short Pause

                                                        x7
| |----------------------------------------------------| |
|o|----------------------------------------------------|o|
|o|-77777777-99999999-44444444-12-12-12-12-12-12-12-12-|o|
| |----------------------------------------------------| |

End on
|-------|
|-------|
|-7~~~~~|
|-------|

Suggest correction
comments
print report bad tab
guest
You may want to rate the tab now too:
select rating
Wanna post a correction for this tab? Suggest correction