Oops, an error
Loading. Please wait.

Arizona Tab

3,132 views 1 this week
no commentswrite comment
1 2 3 4 5
accurate
x 4
add to favorites
launch autoscroll
font size
0
reset
how to read this tab
guitar tuner
Autoscroll
slow
fast
+/-
esc
set tempo
stop
Help us to improve Ultimate-Guitar.com Take our survey!
×
Difficulty
novice
INTRO:
e|---------------------------------\---------------------------------|
B|---------------------------------\---------------------------------|
G|-x-x-6-6-x-x-6-6-x-x-6-6-x-x-4-4-\-x-x-2-2-x-x-2-2-x-x-2-2-x-x-2-2-|
D|-x-x-6-6-x-x-6-6-x-x-6-6-x-x-4-4-\-x-x-2-2-x-x-2-2-x-x-2-2-x-x-2-2-|
A|-x-x-4-4-x-x-4-4-x-x-4-4-x-x-2-2-\-x-x-----x-x-----x-x-----x-x-----|
E|---------------------------------\---------------------------------|
                                                                       X2
e|---------------------------------\---------------------------------|
B|---------------------------------\---------------------------------|
G|-x-x-----x-x-----x-x-----x-x-----\-x-x-4-4-x-x-4-4-x-x-4-4-x-x-4-4-|
D|-x-x-2-2-x-x-2-2-x-x-2-2-x-x-2-2-\-x-x-4-4-x-x-4-4-x-x-4-4-x-x-4-4-|
A|-x-x-2-2-x-x-2-2-x-x-2-2-x-x-2-2-\-x-x-2-2-x-x-2-2-x-x-2-2-x-x-2-2-|
E|---------------------------------\---------------------------------|

e|------\------|
B|------\------|
G|-2~~~-\-4~~~-|
D|-2~~~-\-4~~~-|
A|------\-2~~~-|
E|------\------|

CHORUS:
e|------------------------------------------------------------------|
B|------------------------------------------------------------------|
G|---------4-4-4-4-6-6-6-6-2-2-2-2---------4-4-4-4-2-2-2-2-2-2-2-2--|
D|-2-2-2-2-4-4-4-4-6-6-6-6-2-2-2-2-2-2-2-2-4-4-4-4-2-2-2-2-2-2-2-2--| X2
A|-2-2-2-2-2-2-2-2-4-4-4-4---------2-2-2-2-2-2-2-2------------------|
E|------------------------------------------------------------------|

INTERLUDE:
e|---------------------------------\---------------------------------|
B|---------------------------------\---------------------------------|
G|-x-x-6-6-x-x-6-6-x-x-6-6-x-x-4-4-\-x-x-2-2-x-x-2-2-x-x-2-2-x-x-2-2-|
D|-x-x-6-6-x-x-6-6-x-x-6-6-x-x-4-4-\-x-x-2-2-x-x-2-2-x-x-2-2-x-x-2-2-|
A|-x-x-4-4-x-x-4-4-x-x-4-4-x-x-2-2-\-x-x-----x-x-----x-x-----x-x-----|
E|---------------------------------\---------------------------------|

e|---------------------------------\---------------------------------|
B|---------------------------------\---------------------------------|
G|-x-x-----x-x-----x-x-----x-x-----\-x-x-4-4-x-x-4-4-x-x-4-4-x-x-4-4-|
D|-x-x-2-2-x-x-2-2-x-x-2-2-x-x-2-2-\-x-x-4-4-x-x-4-4-x-x-4-4-x-x-4-4-|
A|-x-x-2-2-x-x-2-2-x-x-2-2-x-x-2-2-\-x-x-2-2-x-x-2-2-x-x-2-2-x-x-2-2-|
E|---------------------------------\---------------------------------|

VERSE (INTRO):
e|---------------------------------\---------------------------------|
B|---------------------------------\---------------------------------|
G|-x-x-6-6-x-x-6-6-x-x-6-6-x-x-4-4-\-x-x-2-2-x-x-2-2-x-x-2-2-x-x-2-2-|
D|-x-x-6-6-x-x-6-6-x-x-6-6-x-x-4-4-\-x-x-2-2-x-x-2-2-x-x-2-2-x-x-2-2-|
A|-x-x-4-4-x-x-4-4-x-x-4-4-x-x-2-2-\-x-x-----x-x-----x-x-----x-x-----|
E|---------------------------------\---------------------------------|
                                                                       X2
e|---------------------------------\---------------------------------|
B|---------------------------------\---------------------------------|
G|-x-x-----x-x-----x-x-----x-x-----\-x-x-4-4-x-x-4-4-x-x-4-4-x-x-4-4-|
D|-x-x-2-2-x-x-2-2-x-x-2-2-x-x-2-2-\-x-x-4-4-x-x-4-4-x-x-4-4-x-x-4-4-|
A|-x-x-2-2-x-x-2-2-x-x-2-2-x-x-2-2-\-x-x-2-2-x-x-2-2-x-x-2-2-x-x-2-2-|
E|---------------------------------\---------------------------------|

e|------\------|
B|------\------|
G|-2~~~-\-4~~~-|
D|-2~~~-\-4~~~-|
A|------\-2~~~-|
E|------\------|

CHORUS:
e|-----------------------------------------------------------------|
B|-----------------------------------------------------------------|
G|---------4-4-4-4-6-6-6-6-2-2-2-2---------4-4-4-4-2-2-2-2-2-2-2-2-|
D|-2-2-2-2-4-4-4-4-6-6-6-6-2-2-2-2-2-2-2-2-4-4-4-4-2-2-2-2-2-2-2-2-| X2
A|-2-2-2-2-2-2-2-2-4-4-4-4---------2-2-2-2-2-2-2-2-----------------|
E|-----------------------------------------------------------------|

BRIDGE:
e|-----------------------------------------------------------------|
B|-----------------------------------------------------------------|
G|-6-6---------4-4---------6-6---------------22222-----------------|
D|-6-6---2-2---4-4---4-4---6-6---2-2---4-4---22222-----------------|
A|-4-4---2-2---2-2---4-4---4-4---2-2---4-4-------------------------|
E|-------------------2-2---------------2-2-------------------------|

SLOW PART:
e|-4----0----0---------|
B|-5----2----0---------|
G|-6----2----1----4~~--|
D|-6----2----2----4~~--|
A|-4----0----2----2~~--|
E|-4----X----0---------|

CHORUS:
e|-----------------------------------------------------------------|
B|-----------------------------------------------------------------|
G|---------4-4-4-4-6-6-6-6-2-2-2-2---------4-4-4-4-2-2-2-2-2-2-2-2-|
D|-2-2-2-2-4-4-4-4-6-6-6-6-2-2-2-2-2-2-2-2-4-4-4-4-2-2-2-2-2-2-2-2-| X4
A|-2-2-2-2-2-2-2-2-4-4-4-4---------2-2-2-2-2-2-2-2-----------------|
E|-----------------------------------------------------------------|

OUTRO:
e|---|
B|---|
G|---|
D|-2-|
A|-2-|
E|---|
Suggest correction new What's this?
You can suggest a correction to this tab. Community and Mods will review your correction and vote to approve or reject it.
comments
print report bad tab
I want to post or [tab]
guest
You may want to rate the tab now too:
select rating
Please do not post tabs as comments. Select "correction" instead!