Oops, an error
Loading. Please wait.

Hangover Bass Tab

269 views 1 this week
no commentswrite comment
1 2 3 4 5
excellent!
x 1
add to favorites
launch autoscroll
font size
0
reset
guitar tuner
Tab Pro tools
  • play this tab
  • loop segment
  • change instrument
  • show fretboard
  • metronome
Autoscroll
slow
fast
+/-
esc
set tempo
stop
Contributor
Tuning
D A D G B E
0:24
G|-------------------------------------------------------------------------------|
D|-------------------9--------------------------------------11---11---11-11-11-\-|
A|-------------------------------------------------------------------------------|
D|-9-------9-------9-----9---9-9-9-9-11---11---11---11---11----------------------|

0:29
G|-----------------------------------------------6---6-------------|
D|---------------4-----4---4-------------------------------------0-|
A|---------------------------------4---4---4---4-------4---4---4---|
D|-4---4---4---4-----4---------------------------------------------|

0:34
G|-----------------------------------------------4-----4---4-------|
D|-1---1---1-----1-----1---1---------------------------------4-----|
A|-------------4-----4-------------2---2---2---2-----2---------6-4-|
D|-----------------------------------------------------------------|

0:40
G|-----------------------------------------------------------------|
D|---------------4-----4-4-4---4---------------------------------0-|
A|---------------------------------4---4---4---4-4---4-4---4---4---|
D|-4---4---4---4-----4---------------------------------------------|

0:45
G|-------------------------------------|
D|-1---1---1-----1---4-1---1-3-4-------|
A|-------------4-------------------2---|
D|-------------------------------------|

0:51
G|-----------4-------4-2-------------------------------------------4-------4-2-----------------|
D|-----------------------4---1---1-1-3-4-------6-4-----------------------------4---1---1---3-4-|
A|-2-------2---------------------------------------------2-------2-----------------------------|
D|---------------------------------------------------------------------------------------------|

1:01
G|-----------4-------4-------------------------------|
D|---------------------4---1---1---3-4-------4-3-1---|
A|-2-------2---------------------------------------4-|
D|---------------------------------------------------|

G|------------4-------4-2-------------------------------|
D|o-----------------------4---1---1---3-4------4-3-1---o|
A|o-2-------2----------------------------------------4-o|
D|------------------------------------------------------|

1:17
G|-------------------4------------------------------------------------------|
D|-----------------------------------------------------11---11---11-11-11-\-|
A|-2-------2-------2-----2---2-2-2-2-4---4---4---4---4----------------------|
D|--------------------------------------------------------------------------|

1:21
G|-----------------------------------------------6---6-------------|
D|---------------4-----4-4-4-4-4-4-------------------------------0-|
A|---------------------------------4---4---4---4-------4---4-2-4---|
D|-4---4---4---4-----4---------------------------------------------|

1:27
G|-----------------------------------------------4-----4---4-------|
D|-1---1---1-----1-----1-1-1-1-1-----------------------------4-----|
A|-------------4-----4-----------4-2---2---2---2-----2---------6-4-|
D|-----------------------------------------------------------------|

1:32
G|-----------------------------------------------6---6-------------|
D|---------------4-----4-4-4-4-4-4-------------------------------0-|
A|---------------------------------4---4---4---4-------4-4-4-2-4---|
D|-4---4---4---4-----4---------------------------------------------|

1:38
G|---------------------------------------------------4---4---4-------|
D|-1---1---1-----1-----1-3-4-3-1-------------------------------------|
A|-------------4-----4-----------4-2-------2-------2-------------6-4-|
D|-------------------------------------------------------------------|

1:43
G|-----------------------------------------------------------------|
D|-----------------------------------------------------------------|
A|---------------------------------4---4---4---4-6-4-4-4-4---------|
D|-6-------6-------6---6---6---6-8---------------------------------|

1:50
G|-------------------4---4---4-------4--------------------------------|
D|--------------------------------------------------------------------|
A|-2-------2-------2-------------------2-----------------/9---9---9---|
D|-----------------------------------------4---4-------4--------------|

1:55
G|--------------------------------------------------------------------------|
D|--------------------------------------------------------------------------|
A|------------------------------------4---4---4-------2-4---4---4-------2---|
D|-6---6---6-------4-6---6---6---6-8----------------------------------------|

2:04
G|-----------4-----------------------------------------------4-------------------------|
D|-------------------------1---1---3-4-------6-\---------------------------1---1---3-4-|
A|-2-------2---------------------------------------2-------2---------------------------|
D|-------------------------------------------------------------------------------------|

2:14
G|-----------------------------------------------6---6-------------|
D|---------------4-----4-4-4-4-4-4-------------------------------0-|
A|---------------------------------4---4---4---4-------4---4-2-4---|
D|-4---4---4---4-----4---------------------------------------------|

2:20
G|-----------------------------------------------4---4-4---4-------|
D|-1---1---1-----1-1---1-1-1-1-1-----------------------------4-----|
A|-------------------4-----------4-2---2---2---2---------------6-4-|
D|-----------------------------------------------------------------|

2:25
G|-----------------------------------------------6---6-------------|
D|---------------4-----4-4-4-4-4-4-------------------------------0-|
A|---------------------------------4---4---4---4-------4---4-2-4---|
D|-4---4---4---4-----4---------------------------------------------|

2:30
G|-------------------------------------------------6---6---6-4-----|
D|-1---1---1-----1---1-1-3-4-3-1-------------------------------4---|
A|-------------------------------4-2---2---2---2-----------------6-|
D|-----------------------------------------------------------------|

2:37
G|---------------11---11---11-----------------------------------------|
D|------------------------------------------------------------------0-|
A|----------------------------------2-4---4---4---2-4---2-4---4---4---|
D|-4---4---4---4------------------------------------------------------|

2:42
G|-----------------------------------------------4---4-4---4-------|
D|-1---1---1-----1-----1---1-3-4-----------------------------6-4---|
A|-------------------4-------------2---2---2---2-------------------|
D|-----------------------------------------------------------------|

2:48
G|-------------------------------------------------6-----------------|
D|---------------4-----4---4---------------------------6-----------0-|
A|---------------------------------4---4---4-------------4---4-2-4---|
D|-4---4---4---4-----4---------6-8-----------------------------------|

2:53
G|---------------------------------------------------4-|
D|-1---1---1-----1---4-1---1-3-4-----------------------|
A|-------------4-------------------2-------2-------2---|
D|-----------------------------------------------------|
Tabbed by Dave Vucko
comments
We did not receive enough feedback on this tab! Please rate:
print report bad tab
1 2 3 4 5
I want to post or [tab]
guest
You may want to rate the tab now too:
select rating
Please do not post tabs as comments. Select "correction" instead!