Oops, an error
Loading. Please wait.

Homecoming Tab

version 1
version 1

Interactive

4,142 views 1 this week
no commentswrite comment
1 2 3 4 5
please rate
add to favorites
launch autoscroll
font size
0
reset
how to read this tab
guitar tuner
Tab Pro tools
  • play this tab
  • loop segment
  • change instrument
  • show fretboard
  • metronome
×
Best way to learn
"Homecoming"
Autoscroll
slow
fast
+/-
esc
set tempo
stop
Contributor
--------------------------------------------------------------------------                  
Homecoming (Acoustic) - Hey Monday
----------------------------------------------------------------------------
Tabbed by: Sasha Jaime
Email: sashaeatssky@aol.com
Tuning: Dropped D
Based on this video I figured out Cassadee's Part and the Intro where Mike plays. 
http://www.youtube.com/watch?v=97BCIkrGmNs
 Intro.(Mike's Part)
e|-------------------------------------------------------------------------|
B|-------------------------------------------------------------------------|
G|---0-2-2/4-2-0----0-2-2/4-2-0--------------------------------------------|
D|-2--------------2--------------------------------------------------------|
A|-------------------------------------------------------------------------|
D|-------------------------------------------------------------------------|
 
 (Cassadee)Same time as mike.
e|-------------------------------------------------------------------------|
B|-------------------------------------------------------------------------|
G|-xxx-----xxxxxxx-----xxxxxxxx--------------------------------------------|
D|-xxx--14-xxxxxxx--14-xxxxxxxx--------------------------------------------|
A|-xxx--14-xxxxxxx--14-xxxxxxxx--------------------------------------------|
D|-xxx--14-xxxxxxx--14-xxxxxxxx--------------------------------------------|
 (Cassadee) "Homecoming, I'm Comming"
e|-----------------------------------------------------------------------|
B|-----------------------------------------------------------------------|
G|-----xxxx------xxxx------xxxx-----xxxx---------------------------------|
D|-2-2-xxxx--5-5-xxxx--0-0-xxxx--77-xxxx---------------------------------|x4
A|-2-2-xxxx--5-5-xxxx--0-0-xxxx--77-xxxx---------------------------------|
D|-2-2-xxxx--5-5-xxxx--0-0-xxxx--77-xxxx---------------------------------|
 
 (Cassadee) "And Carved Out Our Names"  Strumming: DUDUDUDU
e|-----------------------------------------------------------------------|
B|-----------------------------------------------------------------------|
G|-----------------------------------------------------------------------|
D|-7-----10----10-10-10-10-10-10-10-10-----------------------------------|
A|-7-----10----10-10-10-10-10-10-10-10-----------------------------------|
D|-7-----10----10-10-10-10-10-10-10-10-----------------------------------|
 (Cassadee) "I'm Coming Home, I'm Coming Home" Strumming: DUDUDUDU
e|---------------------------------------------------------------------|
B|---------------------------------------------------------------------|
G|---------------------------------------------------------------------|
D|-2-2-2-2-2-2-2-2--5-5-5-5-5-5-5-5--0-0-0-0-0-0-0-0--7-7-7-7-7-7-7-7--|x3
A|-2-2-2-2-2-2-2-2--5-5-5-5-5-5-5-5--0-0-0-0-0-0-0-0--7-7-7-7-7-7-7-7--|
D|-2-2-2-2-2-2-2-2--5-5-5-5-5-5-5-5--0-0-0-0-0-0-0-0--7-7-7-7-7-7-7-7--|
 (Cassadee) "If I'm Falling, Falling Apart For You"
e|----------------------------------------------------------------------|
B|----------------------------------------------------------------------|
G|-----xxxx------xxxx------xxxx------xxxx-------------------------------|
D|-2-2-xxxx--5-5-xxxx--0-0-xxxx--7-7-xxxx-------------------------------|
A|-2-2-xxxx--5-5-xxxx--0-0-xxxx--7-7-xxxx-------------------------------|
D|-2-2-xxxx--5-5-xxxx--0-0-xxxx--7-7-xxxx-------------------------------|
(Cassadee) Same as Intro.
e|-------------------------------------------------------------------------|
B|-------------------------------------------------------------------------|
G|-xxx-----xxxxxxx-----xxxxxxxx--------------------------------------------|
D|-xxx--14-xxxxxxx--14-xxxxxxxx--------------------------------------------|
A|-xxx--14-xxxxxxx--14-xxxxxxxx--------------------------------------------|
D|-xxx--14-xxxxxxx--14-xxxxxxxx--------------------------------------------|
 (Mike) Same time as Cassadee.
e|-----------------------------------------|
B|-----------------------------------------|
G|---0-2-2/4-2-0----0-2-2/4-2-0------------|
D|-2--------------2------------------------|
A|-----------------------------------------|
D|-----------------------------------------|
 (Cassadee) "Decending, I'm Spinning"
e|-----------------------------------------------------------|
B|-----------------------------------------------------------|
G|-----xxxx------xxxx------xxxx-----xxxx---------------------|
D|-2-2-xxxx--5-5-xxxx--0-0-xxxx--77-xxxx---------------------|x4
A|-2-2-xxxx--5-5-xxxx--0-0-xxxx--77-xxxx---------------------|
D|-2-2-xxxx--5-5-xxxx--0-0-xxxx--77-xxxx---------------------|
 (Cassadee) "Carve Out Your Name" "Do You Remember That?"
e|-----------------------------------------------|
B|-----------------------------------------------|
G|-----------------------------------------------|
D|-7-----10----10-10-10-10-10-10-10-10-----------|
A|-7-----10----10-10-10-10-10-10-10-10-----------|
D|-7-----10----10-10-10-10-10-10-10-10-----------|
 (Cassadee) "I'm Coming Home, I'm Coming Home" Same Strumming As Before.
e|---------------------------------------------------------------------|
B|---------------------------------------------------------------------|
G|---------------------------------------------------------------------|
D|-2-2-2-2-2-2-2-2--5-5-5-5-5-5-5-5--0-0-0-0-0-0-0-0--7-7-7-7-7-7-7-7--|x3
A|-2-2-2-2-2-2-2-2--5-5-5-5-5-5-5-5--0-0-0-0-0-0-0-0--7-7-7-7-7-7-7-7--|
D|-2-2-2-2-2-2-2-2--5-5-5-5-5-5-5-5--0-0-0-0-0-0-0-0--7-7-7-7-7-7-7-7--|
 (Cassadee) "If I'm Falling, Falling Apart"
e|----------------------------------------------------|
B|----------------------------------------------------|
G|-----xxxx------xxxx------xxxx------xxxx-------------|
D|-2-2-xxxx--5-5-xxxx--0-0-xxxx--7-7-xxxx-------------|
A|-2-2-xxxx--5-5-xxxx--0-0-xxxx--7-7-xxxx-------------|
D|-2-2-xxxx--5-5-xxxx--0-0-xxxx--7-7-xxxx-------------|
 (Cassadee) "You've Got Control Of Me" Strumming: DUDUDUDUDUDUDUDU
e|-x-------x-------x-------x------x-------x---------------------------------|
B|-x-------x-------x-------x------x-------x---------------------------------|
G|-5-------7-------7-------7------5-------7---------------------------------|
D|-5-------7-------7-------7------5-------7---------------------------------|
A|-3(x16)--5(x16)--5(x16)--5(16)--3(x16)--5(x16)----------------------------|
D|-x-------x-------5-------x------x-------x---------------------------------|
 (Cassadee) "Please Don't Walk Away" Strumming: DUDUDU DUDU.
e|-----------x-x------x-x-x-x-x-x----x-x-x-x-----------------|
B|-----------x-x------x-x-x-x-x-x----x-x-x-x-----------------|
G|-----xxxx--4-4--xx--5-5-5-5-5-5----7-7-7-7-----------------|
D|-2-2-xxxx--4-4--xx--5-5-5-5-5-5----7-7-7-7-----------------|X2
A|-2-2-xxxx--2-2--xx--3-3-3-3-3-3----5-5-5-5-----------------|
D|-2-2-xxxx--x-x--xx--x-x-x-x-x-x----x-x-x-x-----------------|
 (Mike) "Please Don't Walk Away" Same Time As Cassadee.
e|-12-12~--14-14~-15-15-15~-17--17-|
B|---------------------------------|
G|---------------------------------|
D|---------------------------------|
A|---------------------------------|
D|---------------------------------| x2
 (Cassadee) "Homecoming I'm Coming, I'm Coming Back"
e|-----------------------------------------------------------------------|
B|-----------------------------------------------------------------------|
G|-----------------------------------------------------------------------|
D|-2-----5-----0-----7----7----------------------------------------------|
A|-2-----5-----0-----7----7(x8)------------------------------------------|
D|-2-----5-----0-----7----7----------------------------------------------|
 (Cassadee) I'm Coming Home, I'm Coming Home" 
e|---------------------------------------------------------------------|
B|---------------------------------------------------------------------|
G|---------------------------------------------------------------------|
D|-2-2-2-2-2-2-2-2--5-5-5-5-5-5-5-5--0-0-0-0-0-0-0-0--7-7-7-7-7-7-7-7--|x3
A|-2-2-2-2-2-2-2-2--5-5-5-5-5-5-5-5--0-0-0-0-0-0-0-0--7-7-7-7-7-7-7-7--|
D|-2-2-2-2-2-2-2-2--5-5-5-5-5-5-5-5--0-0-0-0-0-0-0-0--7-7-7-7-7-7-7-7--|
 (Cassadee) If I'm Falling, Falling Apart"
e|----------------------------------------------------------------------|
B|----------------------------------------------------------------------|
G|-----xxxx------xxxx------xxxx------xxxx-------------------------------|
D|-2-2-xxxx--5-5-xxxx--0-0-xxxx--7-7-xxxx-------------------------------|
A|-2-2-xxxx--5-5-xxxx--0-0-xxxx--7-7-xxxx-------------------------------|
D|-2-2-xxxx--5-5-xxxx--0-0-xxxx--7-7-xxxx-------------------------------|
 (Cassadee) I'm Coming Home, I'm Coming Home"
e|---------------------------------------------------------------------|
B|---------------------------------------------------------------------|
G|---------------------------------------------------------------------|
D|-2-2-2-2-2-2-2-2--5-5-5-5-5-5-5-5--0-0-0-0-0-0-0-0--7-7-7-7-7-7-7-7--|x3
A|-2-2-2-2-2-2-2-2--5-5-5-5-5-5-5-5--0-0-0-0-0-0-0-0--7-7-7-7-7-7-7-7--|
D|-2-2-2-2-2-2-2-2--5-5-5-5-5-5-5-5--0-0-0-0-0-0-0-0--7-7-7-7-7-7-7-7--|
 (Cassadee) If I'm Falling, Falling Apart For You"
e|----------------------------------------------------------------------|
B|----------------------------------------------------------------------|
G|-----xxxx------xxxx------xxxx------xxxx-------------------------------|
D|-2-2-xxxx--5-5-xxxx--0-0-xxxx--7-7-xxxx--2----------------------------|
A|-2-2-xxxx--5-5-xxxx--0-0-xxxx--7-7-xxxx--2----------------------------|
D|-2-2-xxxx--5-5-xxxx--0-0-xxxx--7-7-xxxx--2----------------------------|

Thats it, I tried my best and I think it came out pretty damn good.
If you have any questions email me and i'll help you out. 

| /  slide up
| \  slide down
| h  hammer-on
| p  pull-off
| ~  vibrato
| +  harmonic
| x  Mute note
===============================================================================
comments
We did not receive enough feedback on this tab! Please rate:
print report bad tab
1 2 3 4 5
I want to post or [tab]
guest
You may want to rate the tab now too:
select rating
Please do not post tabs as comments. Select "correction" instead!