Oops, an error
Loading. Please wait.

Homecoming Tab

version 3
version 3

Interactive

573 views 1 this week
no commentswrite comment
1 2 3 4 5
please rate
add to favorites
launch autoscroll
font size
0
reset
how to read this tab
guitar tuner
Autoscroll
slow
fast
+/-
esc
set tempo
stop
Help us to improve Ultimate-Guitar.com Take our survey!
×
Tuning
D A D G B E
-------------------------------------------------------------------------------
                             HOMECOMING  - Hey Monday
-------------------------------------------------------------------------------
Tabbed by: Tashina
Email: personal (tashinarules@hotmail.com) school (montt2@student.ednet.ns.ca)

NOTE:  This is based off of an acoustic performance, so Cassadee was 
]playing the second guitar, Mike the first.  The video I got this from 
is on youtube.  Go look it up. (:   But yeah.  This is my first tab, 
so I hope it’s okay.  I worked really hard on this.  Comments are 
appreciated. (:

Difficulty: Somewhere between Novice and Intermediate, because there's 
riffs and things, but they're easy, and there aren't really many guitar
techniques used.

Tuning: Guitar 1: Drop D
        Guitar 2: Drop D

Intro: (Guitar 2 does not play)

Guitar 1: (Mike)
e|-------------------------------|
B|-------------------------------|
G|----0-2-2-4-2-0----0-2-2-4-2-0-|
D|-2---------------2-------------| x2
A|-------------------------------|
D|-------------------------------|


Verse 1:

Guitar 1: (Mike)
e|-----------------------------------------|
B|-----------------------------------------|
G|-----------------------------------------|
D|-9-9-xxxx--5-5-xxxx--0-0-xxxx--7-7-xxxx--| x4
A|-9-9-xxxx--5-5-xxxx--0-0-xxxx--7-7-xxxx--|
D|-9-9-xxxx--5-5-xxxx--0-0-xxxx--7-7-xxxx--|

Guitar 2: (Cassadee)
e|-------------------------|
B|-------------------------|
G|-------------------------|
D|-9-9---5-5---0-0---7-7---| x4
A|-9-9---5-5---0-0---7-7---|
D|-9-9---5-5---0-0---7-7---|


Pre-Chorus: (I don’t think Guitar 2 plays here, but I’m not entirely sure.)

Guitar 1: (Mike)
e|-----------|
B|-----------|
G|-----------|
D|---7~---0~-|
A|---7~---0~-|
D|---7~---0~-|


Chorus Part 1:

Guitar 1: (Mike)
e|----------------|
B|----------------|
G|----------------|
D|-9~--0~--0~--7~-| x3
A|-9~--0~--0~--7~-|
D|-9~--0~--0~--7~-|

Guitar 2: (Casssadee)
e|-----------------------------|
B|-----------------------------|
G|-----------------------------|
D|-9-----0-----0-----7---------| x3
A|-9(x8)-0(x8)-0(x8)-7(x8)-----|
D|-9-----0-----0-----7---------|


Chorus Part 2: (Guitar 2 does not play.)

Guitar 1: (Mike)
e|--------------------------------------------|
B|--------------------------------------------|
G|--------------------------------------------|
D|-9-9--xxxx--0-0--xxxx--0-0--xxxx--7-7--xxxx-|
A|-9-9--xxxx--0-0--xxxx--0-0--xxxx--7-7--xxxx-|
D|-9-9--xxxx--0-0--xxxx--0-0--xxxx--7-7--xxxx-|


Intro: (Guitar 2 does not play)

Guitar 1: (Mike)
e|-------------------------------|
B|-------------------------------|
G|----0-2-2-4-2-0----0-2-2-4-2-0-|
D|-2---------------2-------------| x2
A|-------------------------------|
D|-------------------------------|


Verse 2:

Guitar 1: (Mike)
e|-----------------------------------------|
B|-----------------------------------------|
G|-----------------------------------------|
D|-9-9-xxxx--5-5-xxxx--0-0-xxxx--7-7-xxxx--| x4
A|-9-9-xxxx--5-5-xxxx--0-0-xxxx--7-7-xxxx--|
D|-9-9-xxxx--5-5-xxxx--0-0-xxxx--7-7-xxxx--|

Guitar 2: (Cassadee)
e|-------------------------|
B|-------------------------|
G|-------------------------|
D|-9-9---5-5---0-0---7-7---| x4
A|-9-9---5-5---0-0---7-7---|
D|-9-9---5-5---0-0---7-7---|


Pre-Chorus: (I don’t think Guitar 2 plays here, but I’m not entirely sure.)

Guitar 1: (Mike)
e|-----------|
B|-----------|
G|-----------|
D|---7~---0~-|
A|---7~---0~-|
D|---7~---0~-|


Chorus Part 1:

Guitar 1: (Mike)
e|----------------|
B|----------------|
G|----------------|
D|-9~--0~--0~--7~-| x3
A|-9~--0~--0~--7~-|
D|-9~--0~--0~--7~-|

Guitar 2: (Casssadee)
e|-----------------------------|
B|-----------------------------|
G|-----------------------------|
D|-9-----0-----0-----7---------| x3
A|-9(x8)-0(x8)-0(x8)-7(x8)-----|
D|-9-----0-----0-----7---------|


Chorus Part 2: (Guitar 2 does not play.)

Guitar 1: (Mike)
e|--------------------------------------------|
B|--------------------------------------------|
G|--------------------------------------------|
D|-9-9--xxxx--0-0--xxxx--0-0--xxxx--7-7--xxxx-|
A|-9-9--xxxx--0-0--xxxx--0-0--xxxx--7-7--xxxx-|
D|-9-9--xxxx--0-0--xxxx--0-0--xxxx--7-7--xxxx-|


Solo:

Guitar 1: (Mike)
e|-12-12---14-14--15~-15--17--17-|
B|-------------------------------|
G|-------------------------------|
D|-------------------------------|
A|-------------------------------|
E|-------------------------------| x2

e|------------------------------------|
B|------------------------------------|
G|-5-----7-----------7-----5-----7----|
D|-5-----7-----5-----7-----5-----7----|
A|-3x16--5x16--5-----5x16--3x16--5x16-|
E|-------------3x16-------------------|

Guitar 2: (Cassadee)
e|-------------------------------------------------------|
B|-------------------------------------------------------|
G|-5-----------------------------------5-----------------|
D|-5(x16)---0--------5--------0--------5(x16)---0--------|
A|-3--------0(x16)---5(X16)---0(x16)---3--------0(x16)---|
D|----------0--------5--------0-----------------0--------|


Chorus Part 1:

Guitar 1: (Mike)
e|----------------|
B|----------------|
G|----------------|
D|-9~--0~--0~--7~-| x3
A|-9~--0~--0~--7~-|
D|-9~--0~--0~--7~-|

Guitar 2: (Casssadee)
e|-----------------------------|
B|-----------------------------|
G|-----------------------------|
D|-9-----0-----0-----7---------| x3
A|-9(x8)-0(x8)-0(x8)-7(x8)-----|
D|-9-----0-----0-----7---------|


Chorus Part 2: (Guitar 2 does not play.)

Guitar 1: (Mike)
e|--------------------------------------------|
B|--------------------------------------------|
G|--------------------------------------------|
D|-9-9--xxxx--0-0--xxxx--0-0--xxxx--7-7--xxxx-|
A|-9-9--xxxx--0-0--xxxx--0-0--xxxx--7-7--xxxx-|
D|-9-9--xxxx--0-0--xxxx--0-0--xxxx--7-7--xxxx-|


Chorus Part 1:

Guitar 1: (Mike)
e|----------------|
B|----------------|
G|----------------|
D|-9~--0~--0~--7~-| x3
A|-9~--0~--0~--7~-|
D|-9~--0~--0~--7~-|

Guitar 2: (Casssadee)
e|-----------------------------|
B|-----------------------------|
G|-----------------------------|
D|-9-----0-----0-----7---------| x3
A|-9(x8)-0(x8)-0(x8)-7(x8)-----|
D|-9-----0-----0-----7---------|


Chorus Part 2: (Guitar 2 does not play.)

Guitar 1: (Mike)
e|--------------------------------------------|
B|--------------------------------------------|
G|--------------------------------------------|
D|-9-9--xxxx--0-0--xxxx--0-0--xxxx--7-7--xxxx-|
A|-9-9--xxxx--0-0--xxxx--0-0--xxxx--7-7--xxxx-|
D|-9-9--xxxx--0-0--xxxx--0-0--xxxx--7-7--xxxx-|


Outro:

Guitar 1: (Mike)
e|-----|
B|-----|
G|-----|
D|-2~--|
A|-2~--|
D|-2~--|







************************************

| x   Mute note
| ~   vibrato 
| /   slide up (not used)
| \   slide down (not used)
| h   hammer-on (not used)
| p   pull-off (not used)
| +   harmonic (not used)
| b   Bend (not used)
| pb  Pre-bend (not used)
| br  Bend release (not used)
| pbr Pre-bend release (not used)
| brb Bend release bend (not used)

************************************


Suggest correction
What's this?
You can suggest a correction to this tab. Community and Mods will review your correction and vote to approve or reject it.
comments
We did not receive enough feedback on this tab! Please rate:
print report bad tab
1 2 3 4 5
guest
You may want to rate the tab now too:
select rating
Please do not post tabs as comments. Select "correction" instead!