Oops, an error
Loading. Please wait.

Homecoming Bass Tab

version 1
version 1

Whole song

Interactive

15,057 views 6 this week
5 commentsread comments
1 2 3 4 5
excellent!
x 5
add to favorites
launch autoscroll
font size
0
reset
guitar tuner
Autoscroll
slow
fast
+/-
esc
set tempo
stop
Help us to improve Ultimate-Guitar.com Take our survey!
×
Author
Difficulty
Okay this was done by request from MusicMan24, I had never heard this song before he 
me to do it, and thanks to him I am now a Hey Monday fan.

Bass Enters at 0:15
                                        x2
G|-------------------------------------| |
D|-------------------------------------|o|
A|-------------------5-55--------------|o|
E|-0-00-----3-33--------------5-55-----| |

         PM__       PM__      PM__      PM__  x2
| |------------------------------------------| |-------------|
|o|------------------------------------------|o|-------------|
|o|----------------------5-55-5555-----------|o|-0~~~~-3~~~~-|
| |-0-00-0000--3-33-3333-----------5-55-5555-| |-------------|

                                         x3
| |-------------------------------------| |
|o|-------------------------------------|o|
|o|-------------------55555555----------|o|
| |-00000000-33333333----------55555555-| |

|------------------------------|
|------------------------------|
|---------------5-5------------|
|-0-0----3-3-----------5-5-----|

Short Pause

         PM__       PM__      PM__      PM__  x4
| |------------------------------------------| |-------------|
|o|------------------------------------------|o|-------------|
|o|----------------------5-55-5555-----------|o|-0~~~~-3~~~~-|
| |-0-00-0000--3-33-3333-----------5-55-5555-| |-------------|

                                         x3
| |-------------------------------------| |
|o|-------------------------------------|o|
|o|-------------------55555555----------|o|
| |-00000000-33333333----------55555555-| |

|------------------------------|
|------------------------------|
|---------------5-5------------|
|-0-0----3-3-----------5-5-----|

|---------------------------------------------------------------------|
|---------------------------------------------------------------------|
|-----------------------------------2222222222222222-5555555555555555-|
|-0000000000000000-3333333333333333-----------------------------------|

|-----------------------------------|
|-----------------------------------|
|-----------------------------------|
|-0000000000000000-3333333333333333-|

                                         x2
| |-------------------------------------| |---|
|o|-------------------------------------|o|---|
|o|-------------------55555555----------|o|---|
| |-00000000-33333333----------55555555-| |-0-|

                                         x3
| |-------------------------------------| |
|o|-------------------------------------|o|
|o|-------------------55555555----------|o|
| |-00000000-33333333----------55555555-| |

|------------------------------|
|------------------------------|
|---------------5-5------------|
|-0-0----3-3-----------5-5-----|

                                         x3
| |-------------------------------------| |
|o|-------------------------------------|o|
|o|-------------------55555555----------|o|
| |-00000000-33333333----------55555555-| |

|------------------------------|---|
|------------------------------|---|
|---------------5-5------------|---|
|-0-0----3-3-----------5-5-----|-0-|
Suggest correction
comments
print report bad tab
5 comments total. Showing first comments.
0 reply
MusicMan24 1,114 wrote on October 27 2008, 01:42 pm

Awesome tab man!! It's accurate and it's easy to get the timing for the song. 5 Stars *****

+1 reply
*Rhiannon* 10 wrote on May 1 2009, 06:21 am

i love hey monday (saw them in Brisban wit fall out boy) this is an awesome song i shall get practicing right away! =]

+1 reply
JabyMason 52 wrote on October 24 2009, 05:48 am

This is perfect 5 stars

guest
You may want to rate the tab now too:
select rating
Please do not post tabs as comments. Select "correction" instead!