Oops, an error
Loading. Please wait.

Homecoming Tab

version 1
version 1

Interactive

58,339 views 6 this week
15 commentsread comments
1 2 3 4 5
accurate
x 13
add to favorites
launch autoscroll
font size
0
reset
how to read this tab
guitar tuner
Tab Pro tools
  • play this tab
  • loop segment
  • change instrument
  • show fretboard
  • metronome
×
Best way to learn
"Homecoming"
Autoscroll
slow
fast
+/-
esc
set tempo
stop
Contributor
---------------------------------------------------------------------------------
                             Homecoming - Hey Monday
---------------------------------------------------------------------------------
Tabbed by: DoubleAW
Email: doubleaw@doubleaw.com
Band URL: http://heymondaymusic.com/

Tuning: Standard

Intro:

e|-------------------------------|
B|-------------------------------|
G|----0-2-2/4-2-0----0-2-2/4-2-0-|
D|-2---------------2-------------|
A|-------------------------------|
E|-------------------------------| x2

Verse:

e|-------------------------|
B|-------------------------|
G|-4-4---------7-7---------|
D|-4-4---5-5---7-7---7-7---|
A|-2-2---5-5---5-5---7-7---|
E|-------3-3---------5-5---| x4

e|-----------|
B|-----------|
G|--------7--|
D|---7----7--|
A|---7----5--|
E|---5-------|

Chorus:

e|----------------|
B|----------------|
G|-4---7---7------|
D|-4---7---7---7--|
A|-2---5---5---7--|
E|-------------5--| x3

e|--------------------------------------------|
B|--------------------------------------------|
G|-4-4--xxxx--7-7--xxxx--7-7--xxxx------------|
D|-4-4--xxxx--7-7--xxxx--7-7--xxxx--7-7--xxxx-|
A|-2-2--xxxx--5-5--xxxx--5-5--xxxx--7-7--xxxx-|
E|----------------------------------5-5--xxxx-|

Bridge:

e|------------------------------------|
B|------------------------------------|
G|-5-----7-----------7-----5-----7----|
D|-5-----7-----5-----7-----5-----7----|
A|-3x16--5x16--5-----5x16--3x16--5x16-|
E|-------------3x16-------------------|

Solo:

e|-12-12---14-14--15~-15--17--17-|
B|-------------------------------|
G|-------------------------------|
D|-------------------------------|
A|-------------------------------|
E|-------------------------------| x2

Outro:

e|-----|
B|-----|
G|-9/--|
D|-9/--|
A|-7/--|
E|-----|

Song Order:

Intro
Verse
Chorus
Intro
Verse
Chorus
Bridge
Solo
Chorus x2
Outro

| /  slide up
| \  slide down
| h  hammer-on
| p  pull-off
| ~  vibrato
| +  harmonic
| x  Mute note
===============================================================================
comments
print report bad tab
15 comments total. Showing first comments.
0 reply
MusicMan24 wrote on October 26 2008, 08:40 pm

Someone needs to make a bass tab for this song. Good tab by the way.

0 reply
brittneymiss wrote on October 27 2008, 08:46 am

great tab =]

do you think you could do the chord changes for 6 months. i love that song =]

0 reply
mosher666 wrote on November 16 2008, 03:14 pm

for the verse, im not sure the first bit sounds right
e|------|
B|------|
G|-4-4--|
D|-4-4--|
A|-2-2--|
E|------|

trying to play along to the song and it doesnt sound all that right


the rest of it is good though =D

I want to post or [tab]
guest
You may want to rate the tab now too:
select rating
Please do not post tabs as comments. Select "correction" instead!