Oops, an error
Loading. Please wait.

Homecoming Tab

version 2
version 2

Interactive

13,343 views 1 this week
4 commentsread comments
1 2 3 4 5
accurate
x 3
add to favorites
launch autoscroll
font size
0
reset
how to read this tab
guitar tuner
Tab Pro tools
  • play this tab
  • loop segment
  • change instrument
  • show fretboard
  • metronome
Autoscroll
slow
fast
+/-
esc
set tempo
stop
Contributor
Well I didn't know powertab did this, but I learned this song a few weeks ago when I 
heard it which took me about 30 minutes.
My friends all love this band so I figured I would arrange this for piano for one of my 
and I planned on just leaving
it a powertab.  Then I was playing around with the export options because my printer was 
stupid and I figured out it
would put it into a perfect tab.  Please note that I was not positive about the bridge 
I know I messed up the timing on
the last note in the solo.  I'll upload the powertab soon so people can download that 
see how it sounds.

#----------------------------------PLEASE NOTE---------------------------------#
#This file is the author's own work and represents their interpretation of the #
#song. You may only use this file for private study, scholarship, or research. #
#------------------------------------------------------------------------------##


Gtr I (E A D G B E) - 'Untitled'
Gtr II (E A D G B E) - 'Untitled'

  Q=150
 4/4
  Gtr I
  Q   E  E  Q   E  E    +E  E  E  E  Q   E  E
|--------------------|------------------------|
|-------10-12--10----|-----------10-12--10----|
|-9--12-----------12-|-(12)-9-12-----------12-|
|--------------------|------------------------|
|--------------------|------------------------|
|--------------------|------------------------|


  Q   E  E  Q   E  E    +E  E  E  E  Q   E  E
|--------------------|-------------------------|
|-------10-12--10----|-----------10-12--10-----|
|-9--12-----------12-|-(12)-9-12-----------12--|
|--------------------|-------------------------|
|--------------------|-------------------------|
|--------------------|-------------------------|


  Q   E E Q  E  E    +E  E  E E Q  E  E
|-----------------|---------------------|
|-----------------|---------------------|
|-----------------|---------------------|
|-------7-9--7----|-----------7-9--7----|
|-7--10--------10-|-(10)-7-10--------10-|
|-----------------|---------------------|


  Q   E E Q  E  E    +E  E  E E Q  E  E
|-----------------|---------------------|
|-----------------|---------------------|
|-----------------|---------------------|
|-------7-9--7----|-----------7-9--7----|
|-7--10--------10-|-(10)-7-10--------10-|
|-----------------|---------------------|


    E E E E +H       E E E E +H       E E E E +H       E E E E +H
||-----------------|----------------|----------------|-----------------||
||o----------------|----------------|----------------|----------------o||
||-----------------|----------------|----------------|-----------------||
||-----------------|----------------|-7-7-7-7-(7)----|-----------------||
||o-2-2-2-2-(2)----|-5-5-5-5-(5)----|-5-5-5-5-(5)----|-7-7-7-7-(7)----o||
||--0-0-0-0-(0)----|-3-3-3-3-(3)----|----------------|-5-5-5-5-(5)-----||


          PM------|         PM------|         PM------|         PM------|
    E E E E E E E E   E E E E E E E E   E E E E E E E E   E E E E E E E E
||------------------|-----------------|-----------------|-------------------||
||o-----------------|-----------------|-----------------|------------------o||
||------------------|-----------------|-----------------|-------------------||
||------------------|-----------------|-7-7-7-----------|-------------------||
||o-2-2-2-----------|-5-5-5-----------|-5-5-5-5-5-5-5-5-|-7-7-7------------o||
||--0-0-0-0-0-0-0-0-|-3-3-3-3-3-3-3-3-|-----------------|-5-5-5-5-5-5-5-5---||


  W          +W           W          +W
|----------|------------|----------|--------|
|----------|------------|----------|--------|
|----------|------------|----------|--------|
|-2--------|-(2)--------|-5--------|-(5)----|
|-2--------|-(2)--------|-5--------|-(5)----|
|-0--------|-(0)--------|-3--------|-(3)----|


    E E E E E E E E   E E E E E E E E   E E E E E E E E   E E E E E E E E   3x
||------------------|-----------------|-----------------|-------------------||
||o-----------------|-----------------|-----------------|------------------o||
||------------------|-----------------|-----------------|-------------------||
||------------------|-----------------|-7-7-7-7-7-7-7-7-|-------------------||
||o-2-2-2-2-2-2-2-2-|-5-5-5-5-5-5-5-5-|-5-5-5-5-5-5-5-5-|-7-7-7-7-7-7-7-7--o||
||--0-0-0-0-0-0-0-0-|-3-3-3-3-3-3-3-3-|-----------------|-5-5-5-5-5-5-5-5---||


  Q  H.        Q  H.        Q  H.        Q  H.
|------------|------------|------------|----------|
|------------|------------|------------|----------|
|------------|------------|------------|----------|
|------------|------------|-7--7-------|----------|
|-2--2-------|-5--5-------|-5--5-------|-7--7-----|
|-0--0-------|-3--3-------|------------|-5--5-----|


  Q   E E Q  E  E    +E  E  E E Q  E  E
|-----------------|---------------------|
|-----------------|---------------------|
|-----------------|---------------------|
|-------7-9--7----|-----------7-9--7----|
|-7--10--------10-|-(10)-7-10--------10-|
|-----------------|---------------------|


  Q   E E Q  E  E    +E  E  E E Q  E  E
|-----------------|---------------------|
|-----------------|---------------------|
|-----------------|---------------------|
|-------7-9--7----|-----------7-9--7----|
|-7--10--------10-|-(10)-7-10--------10-|
|-----------------|---------------------|


    E E E E +H       E E E E +H       E E E E +H       E E E E +H
||-----------------|----------------|----------------|-----------------||
||o----------------|----------------|----------------|----------------o||
||-----------------|----------------|----------------|-----------------||
||-----------------|----------------|-7-7-7-7-(7)----|-----------------||
||o-2-2-2-2-(2)----|-5-5-5-5-(5)----|-5-5-5-5-(5)----|-7-7-7-7-(7)----o||
||--0-0-0-0-(0)----|-3-3-3-3-(3)----|----------------|-5-5-5-5-(5)-----||


          PM------|         PM------|         PM------|         PM------|
    E E E E E E E E   E E E E E E E E   E E E E E E E E   E E E E E E E E
||------------------|-----------------|-----------------|-------------------||
||o-----------------|-----------------|-----------------|------------------o||
||------------------|-----------------|-----------------|-------------------||
||------------------|-----------------|-7-7-7-----------|-------------------||
||o-2-2-2-----------|-5-5-5-----------|-5-5-5-5-5-5-5-5-|-7-7-7------------o||
||--0-0-0-0-0-0-0-0-|-3-3-3-3-3-3-3-3-|-----------------|-5-5-5-5-5-5-5-5---||


  W          +W           W          +W
|----------|------------|----------|--------|
|----------|------------|----------|--------|
|----------|------------|----------|--------|
|-2--------|-(2)--------|-5--------|-(5)----|
|-2--------|-(2)--------|-5--------|-(5)----|
|-0--------|-(0)--------|-3--------|-(3)----|


    E E E E E E E E   E E E E E E E E   E E E E E E E E   E E E E E E E E   3x
||------------------|-----------------|-----------------|-------------------||
||o-----------------|-----------------|-----------------|------------------o||
||------------------|-----------------|-----------------|-------------------||
||------------------|-----------------|-7-7-7-7-7-7-7-7-|-------------------||
||o-2-2-2-2-2-2-2-2-|-5-5-5-5-5-5-5-5-|-5-5-5-5-5-5-5-5-|-7-7-7-7-7-7-7-7--o||
||--0-0-0-0-0-0-0-0-|-3-3-3-3-3-3-3-3-|-----------------|-5-5-5-5-5-5-5-5---||


  Q  H.        Q  H.        Q  H.        Q  H.
|------------|------------|------------|----------|
|------------|------------|------------|----------|
|------------|------------|------------|----------|
|------------|------------|-7--7-------|----------|
|-2--2-------|-5--5-------|-5--5-------|-7--7-----|
|-0--0-------|-3--3-------|------------|-5--5-----|


  E E E E E E E E   E E E E E E E E   E E E E E E E E   E E E E E E E E
|-----------------|-----------------|-----------------|-------------------|
|-----------------|-----------------|-----------------|-------------------|
|-----------------|-----------------|-----------------|-------------------|
|-----------------|-----------------|-----------------|-------------------|
|-2-2-2-2-2-2-2-2-|-2-2-2-2-2-2-2-2-|-5-5-5-5-5-5-5-5-|-5-5-5-5-5-5-5-5---|
|-0-0-0-0-0-0-0-0-|-0-0-0-0-0-0-0-0-|-3-3-3-3-3-3-3-3-|-3-3-3-3-3-3-3-3---|


  E E E E E E E E   E E E E E E E E   E E E E E E E E   E E E E E E E E
|-----------------|-----------------|-----------------|-----------------|
|-----------------|-----------------|-----------------|-----------------|
|-----------------|-----------------|-----------------|-----------------|
|-----------------|-----------------|-----------------|-----------------|
|-2-2-2-2-2-2-2-2-|-2-2-2-2-2-2-2-2-|-5-5-5-5-5-5-5-5-|-5-5-5-5-5-5-5-5-|
|-----------------|-----------------|-----------------|-----------------|


  E E E E E E E E   E E E E E E E E   E E E E E E E E   E E E E E E E E
|-----------------|-----------------|-----------------|-----------------|
|-----------------|-----------------|-----------------|-----------------|
|-----------------|-----------------|-----------------|-----------------|
|-----------------|-----------------|-----------------|-----------------|
|-2-2-2-2-2-2-2-2-|-2-2-2-2-2-2-2-2-|-5-5-5-5-5-5-5-5-|-5-5-5-5-5-5-5-5-|
|-0-0-0-0-0-0-0-0-|-0-0-0-0-0-0-0-0-|-3-3-3-3-3-3-3-3-|-3-3-3-3-3-3-3-3-|


     Q       H.                Q       H.
||--12------12--------------|-14------14--------------|
||o-15b17---15b17-----------|-17b19---17b19-----------|
||--------------------------|-------------------------|
||--------------------------|-------------------------|
||o-------------------------|-------------------------|
||--------------------------|-------------------------|
|
|   Gtr II
|    E    E  E    E E E E E    E    E  E    E E E E E
||--------------------------|-------------------------|
||o-------------------------|-------------------------|
||--------------------------|-------------------------|
||--------------------------|-------------------------|
||o--2----2--2----2-2-2-2-2-|--5----5--5----5-5-5-5-5-|
||---0----0--0----0-0-0-0-0-|--3----3--3----3-3-3-3-3-|


   Q       H.               Q    H           Q
|-15------15--------------|-----17----------17--------||
|-18b20---18b20-----------|-----20b22-------20b22----o||
|-------------------------|---------------------------||
|-------------------------|---------------------------||
|-------------------------|--------------------------o||
|-------------------------|---------------------------||
|
|  E    E  E    E E E E E   E E  E    E E E  E    E
|-------------------------|---------------------------||
|-------------------------|--------------------------o||
|-------------------------|---------------------------||
|--7----7--7----7-7-7-7-7-|---------------------------||
|--5----5--5----5-5-5-5-5-|-7-7--7----7-7-7--7----7--o||
|-------------------------|-5-5--5----5-5-5--5----5---||


  W          +W           +W           +W           +W
|----------|------------|------------|------------|--------|
|----------|------------|------------|------------|--------|
|----------|------------|------------|------------|--------|
|-2--------|-(2)--------|-(2)--------|-(2)--------|-(2)----|
|-2--------|-(2)--------|-(2)--------|-(2)--------|-(2)----|
|-0--------|-(0)--------|-(0)--------|-(0)--------|-(0)----|


    E E E E E E E E   E E E E E E E E   E E E E E E E E   E E E E E E E E   3x
||------------------|-----------------|-----------------|-------------------||
||o-----------------|-----------------|-----------------|------------------o||
||------------------|-----------------|-7-7-7-7-7-7-7-7-|-------------------||
||--2-2-2-2-2-2-2-2-|-5-5-5-5-5-5-5-5-|-7-7-7-7-7-7-7-7-|-7-7-7-7-7-7-7-7---||
||o-2-2-2-2-2-2-2-2-|-5-5-5-5-5-5-5-5-|-5-5-5-5-5-5-5-5-|-7-7-7-7-7-7-7-7--o||
||--0-0-0-0-0-0-0-0-|-3-3-3-3-3-3-3-3-|-----------------|-5-5-5-5-5-5-5-5---||


  Q  H.        Q  H.        Q  H.        Q  H.
|------------|------------|------------|----------|
|------------|------------|------------|----------|
|------------|------------|-7--7-------|----------|
|-2--2-------|-5--5-------|-7--7-------|-7--7-----|
|-2--2-------|-5--5-------|-5--5-------|-7--7-----|
|-0--0-------|-3--3-------|------------|-5--5-----|


    E E E E E E E E   E E E E E E E E   E E E E E E E E   E E E E E E E E   3x
||------------------|-----------------|-----------------|-------------------||
||o-----------------|-----------------|-----------------|------------------o||
||------------------|-----------------|-7-7-7-7-7-7-7-7-|-------------------||
||--2-2-2-2-2-2-2-2-|-5-5-5-5-5-5-5-5-|-7-7-7-7-7-7-7-7-|-7-7-7-7-7-7-7-7---||
||o-2-2-2-2-2-2-2-2-|-5-5-5-5-5-5-5-5-|-5-5-5-5-5-5-5-5-|-7-7-7-7-7-7-7-7--o||
||--0-0-0-0-0-0-0-0-|-3-3-3-3-3-3-3-3-|-----------------|-5-5-5-5-5-5-5-5---||


  Q  H.        Q  H.        Q  H.        Q  H.
|------------|------------|------------|----------|
|------------|------------|------------|----------|
|------------|------------|-7--7-------|----------|
|-2--2-------|-5--5-------|-7--7-------|-7--7-----|
|-2--2-------|-5--5-------|-5--5-------|-7--7-----|
|-0--0-------|-3--3-------|------------|-5--5-----|


  W          +W           +W           +W
|----------|------------|------------|--------*|
|----------|------------|------------|--------*|
|----------|------------|------------|--------*|
|-2--------|-(2)--------|-(2)--------|-(2)----*|
|-2--------|-(2)--------|-(2)--------|-(2)----*|
|-0--------|-(0)--------|-(0)--------|-(0)----*|


Duration Legend
---------------
W - whole; H - half; Q - quarter; E - 8th; S - 16th; T - 32nd; X - 64th; a - acciaccatura
+ - note tied to previous; . - note dotted; .. - note double dotted
Uncapitalized letters represent notes that are staccato (1/2 duration)
Irregular groupings are notated above the duration line
Duration letters will always appear directly above the note/fret number it represents the
duration for.  Duration letters with no fret number below them represent rests.  Multi-
bar rests are notated in the form Wxn, where n is the number of bars to rest for.  Low
melody durations appear below the staff

Tablature Legend
----------------
 h   - hammer-on
 p   - pull-off
 b   - bend
 pb  - pre-bend
 r   - bend release (if no number after the r, then release immediately)
 /\  - slide into or out of (from/to "nowhere")
 s   - legato slide
 S   - shift slide
  - natural harmonic
[n]  - artificial harmonic
n(n) - tapped harmonic
 ~   - vibrato
 tr  - trill
 T   - tap
 TP  - trem. picking
 PM  - palm muting
\n/  - tremolo bar dip; n = amount to dip
 \n  - tremolo bar down
 n/  - tremolo bar up
/n\  - tremolo bar inverted dip
 =   - hold bend; also acts as connecting device for hammers/pulls
 <>  - volume swell (louder/softer)
 x   - on rhythm slash represents muted slash
 o   - on rhythm slash represents single note slash

Misc Legend
-----------
 |  - bar
||  - double bar
||o - repeat start
o|| - repeat end
*|  - double bar (ending)
 :  - bar (freetime)
 $  - Segno
 &  - Coda
Tempo markers -  = BPM(8/16=s8/s16), where s8 = swing 8ths, s16 = swing 16ths


***************************************************************************************
* Generated using Power Tab Editor by Brad Larsen - http://powertab.guitarnetwork.org *
***************************************************************************************
comments
We did not receive enough feedback on this tab! Please rate:
print report bad tab
1 2 3 4 5
4 comments total. Showing first comments.
0 reply
xpatrickstumpx wrote on September 24 2008, 07:25 am

Good job with the tab great job

0 reply
pau1234 wrote on October 30 2008, 11:11 am

hey man can U do it for power tab or for guitar pro please, 'cause it's awesome but I don't understan the times, and if U can do the bass too please

0 reply
DJisaBeast wrote on October 30 2008, 09:47 pm

yea I'll give you the version without the vocal melody because i'm still working on it and it's a little sketchy. I'll add in bass and that will take me about 5 minutes. Thanks for the comment.

I want to post or [tab]
guest
You may want to rate the tab now too:
select rating
Please do not post tabs as comments. Select "correction" instead!