Oops, an error
Loading. Please wait.

Homecoming Tab

version 3
version 3

Interactive

12,553 views 1 this week
2 commentsread comments
1 2 3 4 5
2 more votes to show rating
add to favorites
launch autoscroll
font size
0
reset
how to read this tab
guitar tuner
Autoscroll
slow
fast
+/-
esc
set tempo
stop
Help us to improve Ultimate-Guitar.com Take our survey!
×
Author
Here's the tab for Hey Monday's Homecoming. I'm pretty sure it's right even though I 
have Rhythm and Lead parts mixed together in this song. I'm tabbing what I could hear.

Key:
/-slide down
x-mute
^-bend

Intro:

e|0-3-5-7--5-3-0-3-5-7-5-3-0-3-5-7--5-3-0-3-5-7----|
B|-------------------------------------------------|
G|-------------------------------------------------|
D|-------------------------------------------------|
A|-------------------------------------------------|
D|---------------------------------------------14/0|

Verse 1:

e|-------------------------------------------------|
B|-------------------------------------------------|
G|------------9-9---2-2----------------------------| (x4)
D|2-2---7-7---9-9---2-2----------------------------|
A|2-2---7-7---7-7---0-0----------------------------|
D|2-2---7-7----------------------------------------|

Pre-Chorus:

e|-------------------------------------------------|
B|-------------------------------------------------|
G|-2---5-------------------------------------------|
D|-2---5-------------------------------------------|
A|-0---3-------------------------------------------|
D|-------------------------------------------------|

Chorus:

e|-------------------------------------------------|
B|-------------------------------------------------|
G|--------------9------2---------------------------|(x3)
D|2------7------9-(x6)-2-(x6)----------------------|
A|2-(x6)-7-(x6)-7------0---------------------------|
D|2------7-----------------------------------------|

e|-------------------------------------------------|
B|-------------------------------------------------|
G|----------------9-9xxxx-2-2xxxx------------------|
D|2-2xxxx-7-7xxxx-9-9xxxx-2-2xxxx------------------|
A|2-2xxxx-7-7xxxx-7-7xxxx-0-0xxxx------------------|
D|2-2xxxx-7-7xxxx----------------------------------|

Verse 2:

e|0-3-5-7--5-3-0-3-5-7-5-3-0-3-5-7--5-3-0-3-5-7----|
B|-------------------------------------------------|
G|-------------------------------------------------|
D|-------------------------------------------------|
A|-------------------------------------------------|
D|---------------------------------------------14/0|

e|-------------------------------------------------|
B|-------------------------------------------------|
G|------------9-9---2-2----------------------------| (x4)
D|2-2---7-7---9-9---2-2----------------------------|
A|2-2---7-7---7-7---0-0----------------------------|
D|2-2---7-7----------------------------------------|

Pre-Chorus:

e|-------------------------------------------------|
B|-------------------------------------------------|
G|-2---5-------------------------------------------|
D|-2---5-------------------------------------------|
A|-0---3-------------------------------------------|
D|-------------------------------------------------|

Chorus:

e|-------------------------------------------------|
B|-------------------------------------------------|
G|--------------9------2---------------------------|(x3)
D|2------7------9-(x6)-2-(x6)----------------------|
A|2-(x6)-7-(x6)-7------0---------------------------|
D|2------7-----------------------------------------|

e|-------------------------------------------------|
B|-------------------------------------------------|
G|----------------9-9xxxx-2-2xxxx------------------|
D|2-2xxxx-7-7xxxx-9-9xxxx-2-2xxxx------------------|
A|2-2xxxx-7-7xxxx-7-7xxxx-0-0xxxx------------------|
D|2-2xxxx-7-7xxxx----------------------------------|

Break:

e|-------------------------------------------------|
B|-------------------------------------------------|
G|5-------2-------4-------7-------5-------7--------|
D|5-(x16)-2-(x16)-4-(x16)-7-(x16)-5-(16x)-7-(x16)--|
A|3-------0-------2-------5-------3-------5--------|
D|-------------------------------------------------|

Solo:

e|--12^-12^--14^-14^--15^-(x8 hold bend)-17^-(x3 hold bend)--|
B|-----------------------------------------------------------|
G|-----------------------------------------------------------| (x2)
D|-----------------------------------------------------------|
A|-----------------------------------------------------------|
D|-----------------------------------------------------------|

Chorus:

e|-------------------------------------------------|
B|-------------------------------------------------|
G|--------------9------2---------------------------|(x3)
D|2------7------9-(x6)-2-(x6)----------------------|
A|2-(x6)-7-(x6)-7------0---------------------------|
D|2------7-----------------------------------------|

e|-------------------------------------------------|
B|-------------------------------------------------|
G|----------------9-9xxxx-2-2xxxx------------------|
D|2-2xxxx-7-7xxxx-9-9xxxx-2-2xxxx------------------|
A|2-2xxxx-7-7xxxx-7-7xxxx-0-0xxxx------------------|
D|2-2xxxx-7-7xxxx----------------------------------|

e|-------------------------------------------------|
B|-------------------------------------------------|
G|--------------9------2---------------------------|(x3)
D|2------7------9-(x6)-2-(x6)----------------------|
A|2-(x6)-7-(x6)-7------0---------------------------|
D|2------7-----------------------------------------|

e|-------------------------------------------------|
B|-------------------------------------------------|
G|----------------9-9xxxx-2-2xxxx------------------|
D|2-2xxxx-7-7xxxx-9-9xxxx-2-2xxxx------------------|
A|2-2xxxx-7-7xxxx-7-7xxxx-0-0xxxx------------------|
D|2-2xxxx-7-7xxxx----------------------------------|

End:

D|-2-|
A|-2-|
E|-2-|
Suggest correction
Give kudos to tab author, rate the tab!
1 2 3 4 5
comments
print report bad tab
2 comments total.
0 reply
Suzan_Guitar 61 Oct 21, 2008 02:29 PM

There are a few things that aren't correct in the song.

Verse:
e|-------------------------------------------------|
B|-------------------------------------------------|
G|------------7-7---2-2----------------------------| (x4)
D|2-2---5-5---7-7---2-2----------------------------|
A|2-2---5-5---5-5---0-0----------------------------|
D|2-2---5-5----------------------------------------|

Chorus:
e|-------------------------------------------------|
B|-------------------------------------------------|
G|--------------7------2---------------------------|(x3)
D|2------5------7-(x6)-2-(x6)----------------------|
A|2-(x6)-5-(x6)-5------0---------------------------|
D|2------5-----------------------------------------|

e|-------------------------------------------------|
B|-------------------------------------------------|
G|----------------7-7xxxx-2-2xxxx------------------|
D|2-2xxxx-5-5xxxx-7-7xxxx-2-2xxxx------------------|
A|2-2xxxx-5-5xxxx-5-5xxxx-0-0xxxx------------------|
D|2-2xxxx-5-5xxxx----------------------------------|

Break:
e|-------------------------------------------------|
B|-------------------------------------------------|
G|5-------2---------------7-------5-------7--------|
D|5-(x16)-2-(x16)-5-------7-(x16)-5-(16x)-7-(x16)--|
A|3-------0-------5-(x16)-5-------3-------5--------|
D|----------------5--------------------------------|


If you change those little things, your tab is perfect!
so for those small mistakes 4 stars.

0 reply
jaystradley 10 Nov 01, 2008 05:13 PM

someone tab 6 months im having quite a time trying to figure it out..

guest
You may want to rate the tab now too:
select rating
Wanna post a correction for this tab? Suggest correction