Oops, an error
Loading. Please wait.

Homecoming Tab

version 4
version 4

Interactive

41,631 views 3 this week
3 commentsread comments
1 2 3 4 5
excellent!
x 22
add to favorites
launch autoscroll
font size
0
reset
how to read this tab
guitar tuner
Autoscroll
slow
fast
+/-
esc
set tempo
stop
Help us to improve Ultimate-Guitar.com Take our survey!
×
Author
Song: Homecoming
Artist: Hey Monday
Album: Hold On Tight

Standard Tuning! (EADGBe)

Key

. = palm mute
~ = vibrato


Intro:

e|-------------------------------|
B|-------------------------------|
G|----0-2-2/4-2-0----0-2-2/4-2-0-|
D|-2---------------2-------------|
A|-------------------------------|
E|-------------------------------| x2

Verse 1:

e|-----------------------------------------------------|
B|-----------------------------------------------------|
G|-----------------------------------------------------|
D|----------------------------7-7-7-7-7-7--------------|x4
A|-2-2-2-2-2-2--5-5-5-5-5-5---5-5-5-5-5-5--7-7-7-7-7-7-|
E|-0-0-0-0-0-0--3-3-3-3-3-3----------------5-5-5-5-5-5-|
       . . . .      . . . .       . . . .      . . . .

Prechorus:

e|------------|
B|------------|
G|------------|
D|---7----10--|
A|---7----10--|
E|---5----8---|

Chorus:

e|---------------------------------------------------------------------|
B|---------------------------------------------------------------------|
G|---------------------------------------------------------------------|
D|-----------------------------------7-7-7-7-7-7-7-7-------------------|
A|-2-2-2-2-2-2-2-2--5-5-5-5-5-5-5-5--5-5-5-5-5-5-5-5--7-7-7-7-7-7-7-7--|
E|-0-0-0-0-0-0-0-0--3-3-3-3-3-3-3-3-------------------5-5-5-5-5-5-5-5--| x3

e|-----------------------------------------------------|
B|-----------------------------------------------------|
G|-----------------------------------------------------|
D|----------------------------7-7-7-7-7-7--------------|
A|-2-2-2-2-2-2--5-5-5-5-5-5---5-5-5-5-5-5--7-7-7-7-7-7-|
E|-0-0-0-0-0-0--3-3-3-3-3-3----------------5-5-5-5-5-5-|
       . . . .      . . . .       . . . .      . . . .

Intro Riff

e|-------------------------------|
B|-------------------------------|
G|----0-2-2/4-2-0----0-2-2/4-2-0-|
D|-2---------------2-------------|
A|-------------------------------|
E|-------------------------------| x2


Verse 2:

e|-----------------------------------------------------|
B|-----------------------------------------------------|
G|-----------------------------------------------------|
D|----------------------------7-7-7-7-7-7--------------| x4
A|-2-2-2-2-2-2--5-5-5-5-5-5---5-5-5-5-5-5--7-7-7-7-7-7-|
E|-0-0-0-0-0-0--3-3-3-3-3-3----------------5-5-5-5-5-5-|
       . . . .      . . . .       . . . .      . . . . 

Prechorus:

e|------------|
B|------------|
G|------------|
D|---7----10--|
A|---7----10--|
E|---5----8---|

Chorus:

e|---------------------------------------------------------------------|
B|---------------------------------------------------------------------|
G|---------------------------------------------------------------------|
D|-----------------------------------7-7-7-7-7-7-7-7-------------------|
A|-2-2-2-2-2-2-2-2--5-5-5-5-5-5-5-5--5-5-5-5-5-5-5-5--7-7-7-7-7-7-7-7--|
E|-0-0-0-0-0-0-0-0--3-3-3-3-3-3-3-3-------------------5-5-5-5-5-5-5-5--| x3

e|-----------------------------------------------------|
B|-----------------------------------------------------|
G|-----------------------------------------------------|
D|----------------------------7-7-7-7-7-7--------------|
A|-2-2-2-2-2-2--5-5-5-5-5-5---5-5-5-5-5-5--7-7-7-7-7-7-|
E|-0-0-0-0-0-0--3-3-3-3-3-3----------------5-5-5-5-5-5-|
       . . . .      . . . .       . . . .      . . . .

Bridge:

e|-------------------------------------------------|
B|-------------------------------------------------|
G|-5-------7---------------7-------5-------7-------|
D|-5-------7-------5-------7-------5-------7-------|
A|-3(x15)--5(x15)--5-------5(x15)--3(x15)--5(x15)--|
E|-----------------3(x15)--------------------------|

Solo:

e|-12-12~--14-14~-15-15-15~-17--17-|
B|---------------------------------|
G|---------------------------------|
D|---------------------------------|
A|---------------------------------|
E|---------------------------------| x2

Chorus:

e|---------------------------------------------------------------------|
B|---------------------------------------------------------------------|
G|---------------------------------------------------------------------|
D|-----------------------------------7-7-7-7-7-7-7-7-------------------|
A|-2-2-2-2-2-2-2-2--5-5-5-5-5-5-5-5--5-5-5-5-5-5-5-5--7-7-7-7-7-7-7-7--|
E|-0-0-0-0-0-0-0-0--3-3-3-3-3-3-3-3-------------------5-5-5-5-5-5-5-5--| x3

e|-----------------------------------------------------|
B|-----------------------------------------------------|
G|-----------------------------------------------------|
D|----------------------------7-7-7-7-7-7--------------|
A|-2-2-2-2-2-2--5-5-5-5-5-5---5-5-5-5-5-5--7-7-7-7-7-7-|
E|-0-0-0-0-0-0--3-3-3-3-3-3----------------5-5-5-5-5-5-|
       . . . .      . . . .       . . . .      . . . .

Chorus again

e|---------------------------------------------------------------------|
B|---------------------------------------------------------------------|
G|---------------------------------------------------------------------|
D|-----------------------------------7-7-7-7-7-7-7-7-------------------|
A|-2-2-2-2-2-2-2-2--5-5-5-5-5-5-5-5--5-5-5-5-5-5-5-5--7-7-7-7-7-7-7-7--|
E|-0-0-0-0-0-0-0-0--3-3-3-3-3-3-3-3-------------------5-5-5-5-5-5-5-5--| x3

e|-----------------------------------------------------|
B|-----------------------------------------------------|
G|-----------------------------------------------------|
D|----------------------------7-7-7-7-7-7--------------|
A|-2-2-2-2-2-2--5-5-5-5-5-5---5-5-5-5-5-5--7-7-7-7-7-7-|
E|-0-0-0-0-0-0--3-3-3-3-3-3----------------5-5-5-5-5-5-|
       . . . .      . . . .       . . . .      . . . .

Outro

e|--------|
B|--------|
G|---9~---|
D|---9~---|
A|---7~---|
E|--------|

that toook some time =D and playing around with the chords and studd
tab for a goood song :)
thanks for looking =D

RAWR
Suggest correction
What's this?
You can suggest a correction to this tab. Community and Mods will review your correction and vote to approve or reject it.
comments
print report bad tab
3 comments total.
0 reply
syngates17 33 wrote on May 29 2009, 08:48 pm

Excellent tab thnks alot 5* btw is there an effect on the last note of the solo

0 reply
mosher666 237 wrote on June 7 2009, 11:16 am

i dont think there is an effect, but im not sure
aaaand great tab mate :D 5 stars :)

0 reply
emilygooding03 22 wrote on October 29 2009, 05:16 pm

Awesome tab :)

guest
You may want to rate the tab now too:
select rating
Please do not post tabs as comments. Select "correction" instead!