Oops, an error
Loading. Please wait.

Homecoming Tab

version 5
version 5

Interactive

2,314 views 1 this week
5 commentsread comments
1 2 3 4 5
please rate
add to favorites
launch autoscroll
font size
0
reset
how to read this tab
guitar tuner
Autoscroll
slow
fast
+/-
esc
set tempo
stop
Help us to improve Ultimate-Guitar.com Take our survey!
×
Author
Tabbed by: Luke Caruana

I've seen a lot of bad tabs,
this is 99.95% correct.
ive watched so many videos and have heard the song heaps of times.
All of this is done by ear.
Enjoy!!
Comment!!

Tuning: Dropped D
Guitar 1

Intro:

e|-------------------------------|
B|-------------------------------|
G|-----2-2/4-2---------2-2/4-2---|
D|-2--5---------5--2-5---------5-|
A|-------------------------------|
D|-------------------------------| x2

Verse:

e|-------------------------|
B|-------------------------|
G|-------------7-7---------|
D|-2-2---5-5---7-7---7-7---|
A|-2-2---5-5---5-5---7-7---|
D|-2-2---5-5---------7-7---| x4

Carved out your name...
e|-----------|
B|-----------|
G|-----------|
D|---7~---10~|
A|---7~---10~|
D|---7~---10~|


Chorus:

e|---------------------|
B|---------------------|
G|-----------7---------|
D|-2----5----7----7----|
A|-2----5----5x8--7----|
D|-2x8--5x8-------7x8--| x3

e|--------------------------------------------|
B|--------------------------------------------|
G|------xxxx-------xxxx--7-7--xxxx------------|
D|-2-2--xxxx--5-5--xxxx--7-7--xxxx--7-7--xxxx-|
A|-2-2--xxxx--5-5--xxxx--5-5--xxxx--7-7--xxxx-|
D|-2-2--------5-5-------------------7-7--xxxx-|

Bridge:

e|----------------------------------------------|
B|----------------------------------------------|
G|--------------------------- ------------------|
D|-12------14-------19-----14-----12-----14-----|
A|-x-------x--------x------x------x------x------|
D|-10x16---12x16----17x16--12x16--10x16--12x16--|


Solo:

e|-12----12-----14----14----15~---15----15----17b22--17b22-|
B|-15b17-15b17--17b19-17b19-18b20-18b20-18b20-20b22--20b22-|
G|---------------------------------------------------------|
D|---------------------------------------------------------|
A|---------------------------------------------------------|
D|---------------------------------------------------------| x2

Outro:

e|-----|
B|-----|
G|-----|
D|-2~--|
A|-2~--|
D|-2~--|


Guitar 2

Intro.
Play Chords For Chorus if you want,
Not needed though.

Verse:

e|-------------------------|
B|-------------------------|
G|-------------7-7---------|
D|-2-2---5-5---7-7---7-7---|
A|-2-2---5-5---5-5---7-7---|
D|-2-2---5-5---------7-7---| x4

Carved out your name...
e|-----------|
B|-----------|
G|-----------|
D|---7~---10~|
A|---7~---10~|
D|---7~---10~|


Chorus:

e|---------------------|
B|---------------------|
G|-----------7---------|
D|-2----5----7----7----|
A|-2----5----5x8--7----|
D|-2x8--5x8-------7x8--| x3

e|--------------------------------------------|
B|--------------------------------------------|
G|-----------------xxxx--7-7--xxxx------------|
D|-2-2--xxxx--5-5--xxxx--7-7--xxxx--7-7--xxxx-|
A|-2-2--xxxx--5-5--xxxx--5-5--xxxx--7-7--xxxx-|
D|-2-2--xxxx--5-5-------------------7-7--xxxx-|

Bridge:

e|------------------------------------|
B|------------------------------------|
G|-5-----7-----------7-----5-----7----|
D|-5-----7-----5-----7-----5-----7----|
A|-3x16--5x16--5-----5x16--3x16--5x16-|
D|-------------5x16-------------------|

Solo:

e|---------------------------------|
B|---------------------------------|
G|-------4-4--5~-5-5--7-7----------|
D|--2-2--4-4--5~-5-5--7-7----------|
A|--2-2--2-2--3~-3-3--5-5----------|
D|--2-2----------------------------| x2

Outro:

e|-----|
B|-----|
G|-----|
D|-2~--|
A|-2~--|
D|-2~--|


Song Order:

Intro
Verse
Chorus
Intro
Verse
Chorus
Bridge
Solo
Chorus x2
Outro


LEGEND
/=Slide
~=Vibrato
b=Bend
x=Mute

Suggest correction
Give kudos to tab author, rate the tab!
1 2 3 4 5
comments
print report bad tab
5 comments total. Showing first comments.
-1 reply
MusicMan24 1,114 wrote on April 27 2009, 12:40 pm

This song is not in drop d

0 reply
lukeyboy2k9 30 wrote on April 28 2009, 06:03 am

this song is in fact in drop D,
and i will prove it
http://www.youtube.com/watch?v=97BCIkrGmNs - you can clearly see Cassedee (sorry bout spelling) that she is playing it in dropped D,
otherwise she would not being using one finger to bar the chord.
http://www.youtube.com/watch?v=FQXayLyZ1QY&feature=related - yet another video when you can see both of them playing it in dropped D,

0 reply
MusicMan24 1,114 wrote on April 29 2009, 04:32 pm

Fine, what the **** ever

guest
You may want to rate the tab now too:
select rating
Please do not post tabs as comments. Select "correction" instead!