Oops, an error
Loading. Please wait.

Homecoming Tab

version 6
version 6

Interactive

1,159 views 1 this week
no commentswrite comment
1 2 3 4 5
worth learning
x 3
add to favorites
launch autoscroll
font size
0
reset
how to read this tab
guitar tuner
Autoscroll
slow
fast
+/-
esc
set tempo
stop
Help us to improve Ultimate-Guitar.com Take our survey!
×
Hey it's guitar2player this is a band that my 
cuz showed me and i think they are really good 
and here is one of their tunes, it's standard 
and it's fun to play !

Legend:
~ = Let ring
x = strum muted note
b = bend

Intro:
|--------------------------------------------------------------------|
|--------------------------------------------------------------------|
|-------10-12------------10-12------------10-12------------10-12-----|
|-9-9-12------10--9-9-12-------10--9-9-12-------10--9-9-12-------10~-|x1
|--------------------------------------------------------------------|
|--------------------------------------------------------------------|

Verse: 
|---------------------|
|---------------------|
|-----------7-7-------|
|-2-2--5-5--7-7--7-7--|x4
|-2-2--5-5--5-5--7-7--|
|-0-0--3-3-------5-5--|

Pre-Chorus:
|----------|
|----------|
|-7~--10~--|
|-7~--10~--|x1
|-5~---8~--|
|----------|

Chorus:
|-------------------------------------|
|-------------------------------------|
|-------------------7-7-7-7-----------|
|-2-2-2-2--5-5-5-5--7-7-7-7--7-7-7-7--|x3
|-2-2-2-2--5-5-5-5--5-5-5-5--7-7-7-7--|
|-0-0-0-0--3-3-3-3-----------5-5-5-5--|

|---------------------------------------------------|
|---------------------------------------------------|
|-------------------------7-7-x-x-x-x---------------|
|-2-2-x-x-x-x-5-5-x-x-x-x-7-7-x-x-x-x--7-7-x-x-x-x--|x1
|-2-2-x-x-x-x-5-5-x-x-x-x-5-5-x-x-x-x--7-7-x-x-x-x--|
|-0-0-x-x-x-x-3-3-x-x-x-x--------------5-5-x-x-x-x--|

Intro riff:
|--------------------------------------------------------------------|
|--------------------------------------------------------------------|
|-------10-12------------10-12------------10-12------------10-12-----|
|-9-9-12------10--9-9-12-------10--9-9-12-------10--9-9-12-------10~-|x1
|--------------------------------------------------------------------|
|--------------------------------------------------------------------|

Verse: 
|---------------------|
|---------------------|
|-----------7-7-------|
|-2-2--5-5--7-7--7-7--|x4
|-2-2--5-5--5-5--7-7--|
|-0-0--3-3-------5-5--|

Pre-Chorus:
|----------|
|----------|
|-7~--10~--|
|-7~--10~--|x1
|-5~---8~--|
|----------|

Chorus:
|-------------------------------------|
|-------------------------------------|
|-------------------7-7-7-7-----------|
|-2-2-2-2--5-5-5-5--7-7-7-7--7-7-7-7--|x3
|-2-2-2-2--5-5-5-5--5-5-5-5--7-7-7-7--|
|-0-0-0-0--3-3-3-3-----------5-5-5-5--|

|---------------------------------------------------|
|---------------------------------------------------|
|-------------------------7-7-x-x-x-x---------------|
|-2-2-x-x-x-x-5-5-x-x-x-x-7-7-x-x-x-x--7-7-x-x-x-x--|x1
|-2-2-x-x-x-x-5-5-x-x-x-x-5-5-x-x-x-x--7-7-x-x-x-x--|
|-0-0-x-x-x-x-3-3-x-x-x-x--------------5-5-x-x-x-x--|

Bridge:
|---------------------------------------------------------------------|
|---------------------------------------------------------------------|
|-5-5-5-5-5-5-5-5--7-7-7-7-7-7-7-7------------------------------------|
|-5-5-5-5-5-5-5-5--7-7-7-7-7-7-7-7--7-7-7-7-7-7-7-7--5-5-5-5-5-5-5-5--|x2
|-3-3-3-3-3-3-3-3--5-5-5-5-5-5-5-5--7-7-7-7-7-7-7-7--5-5-5-5-5-5-5-5--|
|-----------------------------------5-5-5-5-5-5-5-5--3-3-3-3-3-3-3-3--|

Solo:
|----12--12--14--14--17-----------|
|---b15-b15-b17-b17-b20-b20-b20---|
|---------------------------------|
|---------------------------------|
|---------------------------------|x2
|---------------------------------|

[Pause] For Piano

Chorus:
|-------------------------------------|
|-------------------------------------|
|-------------------7-7-7-7-----------|
|-2-2-2-2--5-5-5-5--7-7-7-7--7-7-7-7--|x3
|-2-2-2-2--5-5-5-5--5-5-5-5--7-7-7-7--|
|-0-0-0-0--3-3-3-3-----------5-5-5-5--|

|---------------------------------------------------|
|---------------------------------------------------|
|-------------------------7-7-x-x-x-x---------------|
|-2-2-x-x-x-x-5-5-x-x-x-x-7-7-x-x-x-x--7-7-x-x-x-x--|x1
|-2-2-x-x-x-x-5-5-x-x-x-x-5-5-x-x-x-x--7-7-x-x-x-x--|
|-0-0-x-x-x-x-3-3-x-x-x-x--------------5-5-x-x-x-x--|

And then Again! 
|-------------------------------------|
|-------------------------------------|
|-------------------7-7-7-7-----------|
|-2-2-2-2--5-5-5-5--7-7-7-7--7-7-7-7--|x3
|-2-2-2-2--5-5-5-5--5-5-5-5--7-7-7-7--|
|-0-0-0-0--3-3-3-3-----------5-5-5-5--|

|---------------------------------------------------|
|---------------------------------------------------|
|-------------------------7-7-x-x-x-x---------------|
|-2-2-x-x-x-x-5-5-x-x-x-x-7-7-x-x-x-x--7-7-x-x-x-x--|x1
|-2-2-x-x-x-x-5-5-x-x-x-x-5-5-x-x-x-x--7-7-x-x-x-x--|
|-0-0-x-x-x-x-3-3-x-x-x-x--------------5-5-x-x-x-x--|

And thats it ! Rate ! 
Suggest correction
Give kudos to tab author, rate the tab!
1 2 3 4 5
comments
print report bad tab
guest
You may want to rate the tab now too:
select rating
Wanna post a correction for this tab? Suggest correction