Oops, an error
Loading. Please wait.

How You Love Me Now Bass Tab

version 1
version 1

Whole song

Interactive

11,952 views 6 this week
no commentswrite comment
1 2 3 4 5
excellent!
x 5
add to favorites
launch autoscroll
font size
0
reset
guitar tuner
Tab Pro tools
  • play this tab
  • loop segment
  • change instrument
  • show fretboard
  • metronome
×
Best way to learn
"How You Love Me Now"
Autoscroll
slow
fast
+/-
esc
set tempo
stop
Contributor
G|-----------------------------------------------------------------|
D|-----------------------------------------------------------------|
A|-8-8----3-3----8-8----3-3----88888888-33333333-55555555-11111111-|
E|-----------------------------------------------------------------|

Short Pause

|--------------------|
|--------------------|
|-5-5----3-3----1xx1~|
|--------------------|

                                         x3
| |-------------------------------------| |
|o|-------------------------------------|o|
|o|-88888888-33333333-55555555-11111111-|o|
| |-------------------------------------| |

|---------------------7--7-7---3------|
|-------------------------------------|
|-88888888-33333333-55-55-5--11-11111-|
|-------------------------------------|

                                          x2
| |--------------------------------------| |
|o|--------------------------------------|o|
|o|-888888108-33333353-55555575-11111131-|o|
| |--------------------------------------| |

|--------------------|
|--------------------|
|-5-5----3-3----1xx1~|
|--------------------|

                                         x3
| |-------------------------------------| |
|o|-------------------------------------|o|
|o|-88888888-33333333-55555555-11111111-|o|
| |-------------------------------------| |

|---------------------7--7-7---3------|
|-------------------------------------|
|-88888888-33333333-55-55-5--11-11111-|
|-------------------------------------|

|-------------------------------------|
|-------------------------------------|
|-11111111-55555555-33333333-88888888-|
|-------------------------------------|

|--------------------------------------------------|
|--------------------------------------------------|
|-11111111-55555555-33333333-151515151515151515~~~-|
|--------------------------------------------------|

Short Pause

|-------------------------------------|
|-------------------------------------|
|-88888888-33333333-55555555-11111111-|
|-------------------------------------|

Short Pause

|---------------------7--7-7---3-----|
|------------------------------------|
|-88888888-33333333-55-55-5--11-1----|
|------------------------------------|

|-------------------------------------|
|-------------------------------------|
|-88888888-33333333-55555555-11111111-|
|-------------------------------------|

|---------------------7--7-7---3------|
|-------------------------------------|
|-88888888-33333333-55-55-5--11-11111-|
|-------------------------------------|

|-------------------------------------|
|-------------------------------------|
|-88888888-33333333-55555555-11111111-|
|-------------------------------------|

|---------------------7--7-7---3------|
|-------------------------------------|
|-88888888-33333333-55-55-5--11-11111-|
|-------------------------------------|

End With
|------|
|------|
|-8~~~~|
|------|
comments
print report bad tab
I want to post or [tab]
guest
You may want to rate the tab now too:
select rating
Please do not post tabs as comments. Select "correction" instead!