Oops, an error
Loading. Please wait.

How You Love Me Now Tab

version 1
version 1

Whole song

Interactive

16,667 views 9 this week
no commentswrite comment
1 2 3 4 5
please rate
add to favorites
launch autoscroll
font size
0
reset
how to read this tab
guitar tuner
Autoscroll
slow
fast
+/-
esc
set tempo
stop
Help us to improve Ultimate-Guitar.com Take our survey!
×
Author
Tuning
D A D G B E
----------------------------------------------------------------------------
                    Hey Monday - How You Love Me Now
----------------------------------------------------------------------------

This tab is like the one they played in Purevolume Sessions and in the most 
acoustic versions.Hope u guys liked...

Tab by:*-*Cassadee*-*

Tunning:Drop D

Intro

e|--33--22--33-22--xxxx-|
B|--33--33--33-33--xxxx-|
G|--33--00--33-00--xxxx-|
D|--33--00--33-00--xxxx-|
A|--33--00--33-00--xxxx-|
E|--33--00--33-00--xxxx-| 

e|--3333333--0000000--0000000--8888888|
B|--3333333--3333333--0000000--8888888|
G|--3333333--5555555--0000000--8888888|
D|--3333333--5555555--7777777--8888888|
A|--3333333--0000000--xxxxxxx--8888888|
E|--3333333--0000000--xxxxxxx--8888888| 

1 Verse

e|--3--0--0--8----3--0--0--8888888|
B|--3--3--0--8----3--3--0--8888888|
G|--3--5--0--8----3--5--0--8888888|
D|--3--5--7--8----3--5--7--8888888|
A|--3--0--x--8----3--0--x--8888888|
E|--3--0--x--8----3--0--x--8888888|

e|--12-12-xxxx-10-10-xxxx-88-x-8--8888|
B|--12-12-xxxx-10-10-xxxx-88-x-8--8888|
G|--12-12-xxxx-10-10-xxxx-88-x-8--8888|
D|--12-12-xxxx-10-10-xxxx-88-x-8--8888|
A|--12-12-xxxx-10-10-xxxx-88-x-8--8888|
E|--12-12-xxxx-10-10-xxxx-88-x-8--8888| 

1 Chorus 

e|--3333333--0000000--0000000--8888888|
B|--3333333--3333333--0000000--8888888|
G|--3333333--5555555--0000000--8888888|4X
D|--3333333--5555555--7777777--8888888|
A|--3333333--0000000--xxxxxxx--8888888|
E|--3333333--0000000--xxxxxxx--8888888| 
 
2 Verse

e|--3--0--0--8----3--0--0--8888888|
B|--3--3--0--8----3--3--0--8888888|
G|--3--5--0--8----3--5--0--8888888|
D|--3--5--7--8----3--5--7--8888888|
A|--3--0--x--8----3--0--x--8888888|
E|--3--0--x--8----3--0--x--8888888|

e|--12-12-xxxx-10-10-xxxx-88-x-8--8888|
B|--12-12-xxxx-10-10-xxxx-88-x-8--8888|
G|--12-12-xxxx-10-10-xxxx-88-x-8--8888|
D|--12-12-xxxx-10-10-xxxx-88-x-8--8888|
A|--12-12-xxxx-10-10-xxxx-88-x-8--8888|
E|--12-12-xxxx-10-10-xxxx-88-x-8--8888| 

2 Chorus 

e|--3333333--0000000--0000000--8888888|
B|--3333333--3333333--0000000--8888888|
G|--3333333--5555555--0000000--8888888|4X
D|--3333333--5555555--7777777--8888888|
A|--3333333--0000000--xxxxxxx--8888888|
E|--3333333--0000000--xxxxxxx--8888888| 

Bridge

e|--12-----10-----88-x--12-12-xxxx-10----|
B|--12-----10-----88-x--12-12-xxxx-10----|
G|--12-14X-10-14X-88-x--12-12-xxxx-10-14X|
D|--12-----10-----88-x--12-12-xxxx-10----|
A|--12-----10-----88-x--12-12-xxxx-10----|
E|--12-----10-----88-x--12-12-xxxx-10----| 

Repeat Intro

e|--33--22--33-22--xxxx-|
B|--33--33--33-33--xxxx-|
G|--33--00--33-00--xxxx-|
D|--33--00--33-00--xxxx-|
A|--33--00--33-00--xxxx-|
E|--33--00--33-00--xxxx-| 

e|--3333333--0000000--0000000--8888888|
B|--3333333--3333333--0000000--8888888|
G|--3333333--5555555--0000000--8888888|
D|--3333333--5555555--7777777--8888888|
A|--3333333--0000000--xxxxxxx--8888888|
E|--3333333--0000000--xxxxxxx--8888888| 

3 Chorus 
                    PM       PM       PM      PM
e|--3--0--0--8----3333333--0000000--0000000--8888--8-xx|
B|--3--3--0--8----3333333--3333333--0000000--8888--8-xx|
G|--3--5--0--8----3333333--5555555--0000000--8888--8-xx|
D|--3--5--7--8----3333333--5555555--7777777--8888--8-xx|
A|--3--0--x--8----3333333--0000000--xxxxxxx--8888--8-xx|
E|--3--0--x--8----3333333--0000000--xxxxxxx--8888--8-xx|

e|--3333333--0000000--0000000--8888888|     
B|--3333333--3333333--0000000--8888888|     
G|--3333333--5555555--0000000--8888888|4X    
D|--3333333--5555555--7777777--8888888|     
A|--3333333--0000000--xxxxxxx--8888888|     
E|--3333333--0000000--xxxxxxx--8888888|     
  
Outro

e|--3|
B|--3|
G|--3|
D|--3|
A|--3|
E|--3|

| /  slide up
| \  slide down
| h  hammer-on
| p  pull-off
| ~  vibrato
| +  harmonic
| x  Mute note
|PM  Palm Mute
Suggest correction
What's this?
You can suggest a correction to this tab. Community and Mods will review your correction and vote to approve or reject it.
comments
We did not receive enough feedback on this tab! Please rate:
print report bad tab
1 2 3 4 5
guest
You may want to rate the tab now too:
select rating
Please do not post tabs as comments. Select "correction" instead!