Oops, an error
Loading. Please wait.

How You Love Me Now Tab

version 2
version 2

Whole song

Interactive

4,528 views 1 this week
1 commentread comment
1 2 3 4 5
2 more votes to show rating
add to favorites
launch autoscroll
font size
0
reset
how to read this tab
guitar tuner
Autoscroll
slow
fast
+/-
esc
set tempo
stop
Help us to improve Ultimate-Guitar.com Take our survey!
×
Tuning
D A D G B E
Drop D

INTRO
E|----------------------------------|
B|----------------------------------|
G|-----------5-5-5------------------|
D|-3-3-3-xxx-5-5-5-xxx-3-3-5-5-5----|
A|-3-3-3-xxx-3-3-3-xxx-3-3-3-3-3----|
D|-3-3-3-xxx-------xxx-3-3----------|

E|-----------|
B|-----------|
G|---5-7-----|
D|-3-5-7-8---|
A|-3-3-5-8---|
D|-3-----8---|

VERSE
E|---------------|
B|---------------|
G|-10----7-3-----|
D|-10-10-7-3-----|
A|----10---------|
D|---------------|

PRE
E|---------------------8---|
B|---------------------8---|
G|---------------------10--|
D|-12-12-xxx-10-10-xxx-10--|
A|-12-12-xxx-10-10-xxx-8---|
D|-12-12-xxx-10-10-xxx-8---|

CHORUS
E|-----------|
B|-----------|
G|---5-7-----|
D|-3-5-7-8---|
A|-3-3-5-8---|
D|-3-----8---|

BRIDGE
E|-8----------|
B|-8----------|
G|-10---------|
D|-10-12-10---|
A|-8--12-10---|
D|-8--12-10---|
Suggest correction
Give kudos to tab author, rate the tab!
1 2 3 4 5
comments
print report bad tab
1 comment total.
0 reply
Peacemaker21 37 Oct 23, 2009 04:44 PM

This sucks dude

guest
You may want to rate the tab now too:
select rating
Wanna post a correction for this tab? Suggest correction