Oops, an error
Loading. Please wait.

How You Love Me Now Tab

version 3
version 3

Whole song

Interactive

5,258 views 1 this week
no commentswrite comment
1 2 3 4 5
please rate
add to favorites
launch autoscroll
font size
0
reset
how to read this tab
guitar tuner
Autoscroll
slow
fast
+/-
esc
set tempo
stop
Help us to improve Ultimate-Guitar.com Take our survey!
×
Author
Difficulty
intermediate
-----------------------------------------------------------------|
-----------------------------------------------------------------|
How You Love Me Now - Hey Monday
-----------------------------------------------------------------
Tabbed by: FOB182

Tuning: Standard

This is how Mike plays the song live, I'm not sure how much of it is in the album
but it fits if you want to play it with the album version.  I tabbed this by ear and from
many acoustic performances.  If you have any questions, drop a comment.

------------Update------------
Fixed everything, nothing was left untouched. should be near perfect now

Lead- Mike
Intro-
e|---------------------------------------------------------------|
B|-10-8~~--11-10-6~~--10-8~~--11-10-6~~--------------------------|
G|---------------------------------------------------------------|x2
D|---------------------------------------------------------------|
A|---------------------------------------------------------------|
E|---------------------------------------------------------------|
   Woah   Wooooahh     Woah   Wooooahh


Verse 1-
e|---------------------------------------------------------------|
B|-66666666-88888888-55555555-33333333---------------------------|
G|-55555555-55555555-44444444-33333333---------------------------|
D|-------------------77777777-33333333---------------------------|
A|---------------------------------------------------------------|
E|---------------------------------------------------------------|
the first two chords are correct, but the notes on the b string on the last two chords 
right
e|---8---8---8---8---8---8---8---8-------------------------------|
B|-66-666-666-666-666-666-666-666--------------------------------|
G|---------------------------------------------------------------|
D|---------------------------------------------------------------|
A|---------------------------------------------------------------|
E|---------------------------------------------------------------|

Pre-Chorus-
e|-------------------------------------------------------------------|
B|-------------------------------11-10-11-10~~-----------------------|
G|1010---------------------------------------------------------------|
D|-x-x----------1010-------------------------------------------------|
A|-8-8-x-x-x-x---x-x-------------------------------------------------|
E|---------------8-8-------------------------------------------------|


Chorus-
e|---------------------------------------------------------------|
B|---------------------------------------------------------------|
G|-10-10-10-12-14-14-14--12-12-12-14-12-10-----------------------|
D|-x--x--x--x--x--x--x---x--x--x--x--x--x------------------------|x2
A|-8--8--8/10/12--12-12--10-10-10/12\10\8------------------------|
E|---------------------------------------------------------------|

e|---------------------------------------------------------------|
B|---------------------------------------------------------------|
G|-10-10-10-10-10-10-10-14-9-9-9-9-9-9-9-9--10-------------------|
D|-x--x--x--x--x--x--x---x-x-x-x-x-x-x-x-x--x--------------------|
A|-8--8--8--8--8--8--8-/12\7-7-7-7-7-7-7-7-/8--------------------|
E|---------------------------------------------------------------|

e|---------------------------------------------------------------|
B|---------------------------------------------------------------|
G|-10-10-10-10-10-10-10-10-10-10-10-10-10-10-10------------------|
D|-10-10-10-10-10-10-10-10-10-10-10-10-10-10-10------------------|
A|-8--8--8--8--8--8--8--8--8--8--8--8--8--8--8-------------------|
E|---------------------------------------------------------------|
   .  .     .  .     .     .  .     .  .  .
verse 2- can be played many different ways, mike plays it different almost every time

version 1
e|---------------------------------------------------------------|
B|---------------------------------------------------------------|
G|1010--14\-9-9-9-9/101010101010101010---------------------------|
D|-x-x---x--x-x-x-x--x-x-x-x-x-x-x-x-x---------------------------|
A|-8-8-/12\-7-7-7-7/-8-8-8-8-8-8-8-8-8---------------------------|
E|---------------------------------------------------------------|

or version 2
e|---------------------------------------------------------------|
B|-66666666-88888888----------11111111---------------------------|
G|-55555555-55555555-55555555-33333333---------------------------|
D|-------------------77777777------------------------------------|
A|---------------------------------------------------------------|
E|---------------------------------------------------------------|
the first two notes are right, im still trying to figure out the last two chords, they 
close but not perfect

whichever version you play is still followed by
e|---8---8---8---8---8---8---8---8-------------------------------|
B|-66-666-666-666-666-666-666-666--------------------------------|
G|---------------------------------------------------------------|
D|---------------------------------------------------------------|
A|---------------------------------------------------------------|
E|---------------------------------------------------------------|

Pre-Chorus-
e|-------------------------------------------------------------------|
B|-------------------------------11-10-11-10~~-----------------------|
G|1010---------------------------------------------------------------|
D|-x-x----------1010-------------------------------------------------|
A|-8-8-x-x-x-x---x-x-------------------------------------------------|
E|---------------8-8-------------------------------------------------|

Chorus-
e|---------------------------------------------------------------|
B|---------------------------------------------------------------|
G|-10-10-10-12-14-14-14--12-12-12-14-12-10-----------------------|
D|-x--x--x--x--x--x--x---x--x--x--x--x--x------------------------|x2
A|-8--8--8/10/12--12-12--10-10-10/12\10\8------------------------|
E|---------------------------------------------------------------|

e|---------------------------------------------------------------|
B|---------------------------------------------------------------|
G|-10-10-10-10-10-10-10-14-9-9-9-9-9-9-9-9--10-------------------|
D|-x--x--x--x--x--x--x---x-x-x-x-x-x-x-x-x--x--------------------|
A|-8--8--8--8--8--8--8-/12\7-7-7-7-7-7-7-7-/8--------------------|
E|---------------------------------------------------------------|

e|---------------------------------------------------------------|
B|---------------------------------------------------------------|
G|-10-10-10-10-10-10-10-10-10-10-10-10-10-10-10------------------|
D|-10-10-10-10-10-10-10-10-10-10-10-10-10-10-10------------------|
A|-8--8--8--8--8--8--8--8--8--8--8--8--8--8--8-------------------|
E|---------------------------------------------------------------|
   .  .     .  .     .     .  .     .  .  .
Bridge-
e|---------------------------------------------------------------------|
B|---------------------------------------------------------------------|
G|-1010101010101010/12/1414141414141414-1515151515151515-17-15-14-12---|
D|-x-x-x-x-x-x-x-x---x--x-x-x-x-x-x-x-x--x-x-x-x-x-x-x-x--x--x--x--x---|
A|-8-8-8-8-8-8-8-8-/10/1212121212121212-1313131313131313-15-13-12-10---|
E|---------------------------------------------------------------------|
(Those are 10s,12s,13s,14s, and 15s)

e|---------------------------------------------------------------|
B|---------------------------------------------------------------|
G|---------------------------------------------------------------|
D|---------------------------------------------------------------|
A|---------------------------------------------------------------|
E|---------------------------------------------------------------|

Re intro-
e|---------------------------------------------------------------|
B|-10-8~~--11-10-6~~--10-8~~--11-10-6~~--------------------------|
G|---------------------------------------------------------------|x2
D|---------------------------------------------------------------|
A|---------------------------------------------------------------|
E|---------------------------------------------------------------|
   Woah   Wooooahh     Woah   Wooooahh

Breakdown-
e|---------------------------------------------------------------|
B|---------------------------------------------------------------|
G|-10~~~---------7~~~--3~~~--------------------------------------|
D|-10~~~-10~~~---7~~~--3~~~--------------------------------------|
A|-8-~~~-10~~~---5~~~--1~~~--------------------------------------|
E|-------8-~~~---------------------------------------------------|

e|---8---8---8---8---8---8---8---8-------------------------------|
B|-66-666-666-666-666-666-666-666--------------------------------|
G|---------------------------------------------------------------|
D|---------------------------------------------------------------|
A|---------------------------------------------------------------|
E|---------------------------------------------------------------|
come in at the same time as rythm guitars palm muting.

Chorus-
e|---------------------------------------------------------------|
B|---------------------------------------------------------------|
G|-10-10-10-12-14-14-14--12-12-12-14-12-10-----------------------|
D|-x--x--x--x--x--x--x---x--x--x--x--x--x------------------------|x2
A|-8--8--8/10/12--12-12--10-10-10/12\10\8------------------------|
E|---------------------------------------------------------------|

e|---------------------------------------------------------------|
B|---------------------------------------------------------------|
G|-10-10-10-10-10-10-10-14-9-9-9-9-9-9-9-9--10-------------------|
D|-x--x--x--x--x--x--x---x-x-x-x-x-x-x-x-x--x--------------------|
A|-8--8--8--8--8--8--8-/12\7-7-7-7-7-7-7-7-/8--------------------|
E|---------------------------------------------------------------|

e|---------------------------------------------------------------|
B|---------------------------------------------------------------|
G|-10-10-10-10-10-10-10-10-10-10-10-10-10-10-10------------------|
D|-10-10-10-10-10-10-10-10-10-10-10-10-10-10-10------------------|
A|-8--8--8--8--8--8--8--8--8--8--8--8--8--8--8-------------------|
E|---------------------------------------------------------------|
   .  .     .  .     .     .  .     .  .  .

Outro-
e|---------------------------------------------------------------|
B|---------------------------------------------------------------|
G|-10-10--7--3---------------------------------------------------|
D|-10-10--7--3---------------------------------------------------|
A|-8--10--5--1---------------------------------------------------|
E|----8----------------------------------------------------------|
Play each power chord 8 times in a row
second time through play
e|---------------------------------------------------------------|
B|---------------------------------------------------------------|
G|-7-7-7-7-7-7-7-7--3-3-3-3-3-3-3-3--3---------------------------|
D|-7-7-7-7-7-7-7-7--3-3-3-3-3-3-3-3--3---------------------------|
A|-5-5-5-5-5-5-5-5--1-1-1-1-1-1-1-1--1---------------------------|
E|---------------------------------------------------------------|
   . .   . .   .    . .   . .   .
instead of the last two power chords
let the last note ring

uploading new cover to youtube, ill update with link so you can see timing

i also may update later with rythm guitar seeing as its very easy to paly, but for now
the lead.

| /  slide up
| \  slide down
| h  hammer-on
| p  pull-off
| ~  vibrato
| +  harmonic
| x  Mute note

Rythm Guitar-Alex

Intro-
e|---------------------------------------------------------------|
B|---------------------------------------------------------------|
G|-10-10-10-10---------------------------------------------------|
D|-10-10-10-10---------------------------------------------------|
A|-8--10-8--10---------------------------------------------------|
E|----8-----8----------------------------------------------------|
play each note right before the woahs
second time play
e|---------------------------------------------------------------|
B|---------------------------------------------------------------|
G|-10-10--7--3---------------------------------------------------|
D|-10-10--7--3---------------------------------------------------|
A|-8--10--5--1---------------------------------------------------|
E|----8----------------------------------------------------------|
Play each power chord 8 times in a row

Verse-
e|---------------------------------------------------------------|
B|---------------------------------------------------------------|
G|-10-10--7--3---------------------------------------------------|
D|-10-10--7--3---------------------------------------------------|
A|-8--10--5--1---------------------------------------------------|
E|----8----------------------------------------------------------|
Play each power chord 8 times in a row

Pre chorus-
e|-------------------------------------------------------------------|
B|-------------------------------------------------------------------|
G|1010-----------------------7-7-3-----------------------------------|
D|-x-x----------1010---------7-7-3-----------------------------------|
A|-8-8-x-x-x-x---x-x---------5-5-1-----------------------------------|
E|---------------8-8-x-x-x-x-----------------------------------------|

Chorus-
e|---------------------------------------------------------------|
B|---------------------------------------------------------------|
G|-10-10--7--3---------------------------------------------------|
D|-10-10--7--3---------------------------------------------------|
A|-8--10--5--1---------------------------------------------------|
E|----8----------------------------------------------------------|
Play each power chord 8 times in a row
second time through play
e|---------------------------------------------------------------|
B|---------------------------------------------------------------|
G|-7-7-7-7-7-7-7-7--3-3-3-3-3-3-3-3--3---------------------------|
D|-7-7-7-7-7-7-7-7--3-3-3-3-3-3-3-3--3---------------------------|
A|-5-5-5-5-5-5-5-5--1-1-1-1-1-1-1-1--1---------------------------|
E|---------------------------------------------------------------|
   . .   . .   .    . .   . .   .
instead of the last two power chords
play all of this twice

Verse-
e|---------------------------------------------------------------|
B|---------------------------------------------------------------|
G|-10-10--7--3---------------------------------------------------|
D|-10-10--7--3---------------------------------------------------|
A|-8--10--5--1---------------------------------------------------|
E|----8----------------------------------------------------------|
Play each power chord 8 times in a row

Pre chorus-
e|-------------------------------------------------------------------|
B|-------------------------------------------------------------------|
G|1010-----------------------7-7-3-----------------------------------|
D|-x-x----------1010---------7-7-3-----------------------------------|
A|-8-8-x-x-x-x---x-x---------5-5-1-----------------------------------|
E|---------------8-8-x-x-x-x-----------------------------------------|

Chorus-
e|---------------------------------------------------------------|
B|---------------------------------------------------------------|
G|-10-10--7--3---------------------------------------------------|
D|-10-10--7--3---------------------------------------------------|
A|-8--10--5--1---------------------------------------------------|
E|----8----------------------------------------------------------|
Play each power chord 8 times in a row
second time through play
e|---------------------------------------------------------------|
B|---------------------------------------------------------------|
G|-7-7-7-7-7-7-7-7--3-3-3-3-3-3-3-3--3---------------------------|
D|-7-7-7-7-7-7-7-7--3-3-3-3-3-3-3-3--3---------------------------|
A|-5-5-5-5-5-5-5-5--1-1-1-1-1-1-1-1--1---------------------------|
E|---------------------------------------------------------------|
   . .   . .   .    . .   . .   .
instead of the last two power chords
play all of this twice

bridge is still in progress

re Intro-
e|---------------------------------------------------------------|
B|---------------------------------------------------------------|
G|-10-10-10-10---------------------------------------------------|
D|-10-10-10-10---------------------------------------------------|
A|-8--10-8--10---------------------------------------------------|
E|----8-----8----------------------------------------------------|
play each note right before the woahs

breakdown-
e|---------------------------------------------------------------|
B|---------------------------------------------------------------|
G|-10~~~---------7~~~--3~~~--------------------------------------|
D|-10~~~-10~~~---7~~~--3~~~--------------------------------------|
A|-8-~~~-10~~~---5~~~--1~~~--------------------------------------|
E|-------8-~~~---------------------------------------------------|

e|---------------------------------------------------------------|
B|---------------------------------------------------------------|
G|-10------------7-----3-----------------------------------------|
D|-10----10------7-----3-----------------------------------------|
A|-8-----10------5-----1-----------------------------------------|
E|-------8-------------------------------------------------------|
palm mute each note 8 times

outro-
e|---------------------------------------------------------------|
B|---------------------------------------------------------------|
G|-10-10--7--3---------------------------------------------------|
D|-10-10--7--3---------------------------------------------------|
A|-8--10--5--1---------------------------------------------------|
E|----8----------------------------------------------------------|
Play each power chord 8 times in a row
second time through play
e|---------------------------------------------------------------|
B|---------------------------------------------------------------|
G|-7-7-7-7-7-7-7-7--3-3-3-3-3-3-3-3--3---------------------------|
D|-7-7-7-7-7-7-7-7--3-3-3-3-3-3-3-3--3---------------------------|
A|-5-5-5-5-5-5-5-5--1-1-1-1-1-1-1-1--1---------------------------|
E|---------------------------------------------------------------|
   . .   . .   .    . .   . .   .
instead of the last two power chords
play all of this twice

rythm is pretty straight forward, everything is in sets of 8

plan on recording this part too or maybe a duel guitar cover, well see what i can do.
Suggest correction
What's this?
You can suggest a correction to this tab. Community and Mods will review your correction and vote to approve or reject it.
comments
We did not receive enough feedback on this tab! Please rate:
print report bad tab
1 2 3 4 5
guest
You may want to rate the tab now too:
select rating
Please do not post tabs as comments. Select "correction" instead!