Oops, an error
Loading. Please wait.

How You Love Me Now Tab

version 4
version 4

Whole song

Interactive

960 views 1 this week
1 commentread comment
1 2 3 4 5
please rate
add to favorites
launch autoscroll
font size
0
reset
how to read this tab
guitar tuner
Autoscroll
slow
fast
+/-
esc
set tempo
stop
Help us to improve Ultimate-Guitar.com Take our survey!
×
Author
Tuning
D A D G B E
Tunning:Drop D

Intro

e|--xx--xx--xx-xx--xxxx-|
B|--xx--xx--xx-xx--xxxx-|
G|--xx--55--xx-55--xxxx-|
D|--33--55--33-55--xxxx-|
A|--33--33--33-33--xxxx-|
D|--33--00--33-00--xxxx-| 

e|--xxxxxxx--xxxxxxx--xxxxxxx--xxxxxxx|
B|--xxxxxxx--xxxxxxx--xxxxxxx--xxxxxxx|
G|--xxxxxxx--5555555--xxxxxxx--xxxxxxx|
D|--3333333--5555555--0000000--8888888|
A|--3333333--3333333--0000000--8888888|
D|--3333333--0000000--0000000--8888888| 

Verse

e|--x--x--x--x----x--x--x--xxxxxxx|
B|--x--x--x--x----x--x--x--xxxxxxx|
G|--x--5--x--x----x--5--x--xxxxxxx|
D|--3--5--0--8----3--5--0--8888888|
A|--3--3--0--8----3--3--0--8888888|
D|--3--0--0--8----3--0--0--8888888|

e|--xx-xx-xxxx-xx-xx-xxxx-xx-x-x--xxxx|
B|--xx-xx-xxxx-xx-xx-xxxx-xx-x-x--xxxx|
G|--xx-xx-xxxx-xx-xx-xxxx-xx-x-x--xxxx|
D|--12-12-xxxx-10-xx-xxxx-88-x-8--8888|
A|--12-12-xxxx-10-10-xxxx-88-x-8--8888|
D|--12-12-xxxx-10-10-xxxx-88-x-8--8888| 

Chorus 

e|--xxxxxxx--xxxxxxx--xxxxxxx--xxxxxxx|
B|--xxxxxxx--xxxxxxx--xxxxxxx--xxxxxxx|
G|--xxxxxxx--5555555--xxxxxxx--xxxxxxx|4X
D|--3333333--5555555--0000000--8888888|
A|--3333333--3333333--0000000--8888888|
D|--3333333--0000000--0000000--8888888| 
 
Verse

e|--x--x--x--x----x--x--x--xxxxxxx|
B|--x--x--x--x----x--x--x--xxxxxxx|
G|--x--5--x--x----x--5--x--xxxxxxx|
D|--3--5--0--8----3--5--0--8888888|
A|--3--3--0--8----3--3--0--8888888|
D|--3--0--0--8----3--0--0--8888888|

e|--12-12-xxxx-10-10-xxxx-88-x-8--8888|
B|--12-12-xxxx-10-10-xxxx-88-x-8--8888|
G|--12-12-xxxx-10-10-xxxx-88-x-8--8888|
D|--12-12-xxxx-10-10-xxxx-88-x-8--8888|
A|--12-12-xxxx-10-10-xxxx-88-x-8--8888|
D|--12-12-xxxx-10-10-xxxx-88-x-8--8888| 

Chorus 

e|--xxxxxxx--xxxxxxx--xxxxxxx--xxxxxxx|
B|--xxxxxxx--xxxxxxx--xxxxxxx--xxxxxxx|
G|--xxxxxxx--5555555--xxxxxxx--xxxxxxx|4X
D|--3333333--5555555--0000000--8888888|
A|--3333333--3333333--0000000--8888888|
D|--3333333--0000000--0000000--8888888| 

Bridge

e|--xx-----xx-----xx-x--xx-xx-xxxx-xx----|
B|--xx-----xx-----xx-x--xx-xx-xxxx-xx----|
G|--xx-10X-xx-10X-xx-x--xx-xx-xxxx-xx-10X|
D|--12-----10-----88-x--12-12-xxxx-10----|
A|--12-----10-----88-x--12-12-xxxx-10----|
D|--12-----10-----88-x--12-12-xxxx-10----| 

Repeat Intro

e|--xx--xx--xx-xx--xxxx-|
B|--xx--xx--xx-xx--xxxx-|
G|--xx--55--xx-55--xxxx-|
D|--33--55--33-55--xxxx-|
A|--33--33--33-33--xxxx-|
D|--33--00--33-00--xxxx-| 

e|--xxxxxxx--xxxxxxx--xxxxxxx--xxxxxxx|
B|--xxxxxxx--xxxxxxx--xxxxxxx--xxxxxxx|
G|--xxxxxxx--5555555--xxxxxxx--xxxxxxx|
D|--3333333--5555555--0000000--8888888|
A|--3333333--3333333--0000000--8888888|
D|--3333333--0000000--0000000--8888888| 

Chorus 
             
e|--x--x--x--x----xxxxxxx--xxxxxxx--xxxxxxx--xxxx--x-xx|
B|--x--x--x--x----xxxxxxx--xxxxxxx--xxxxxxx--xxxx--x-xx|
G|--x--5--x--x----xxxxxxx--5555555--xxxxxxx--xxxx--x-xx|
D|--3--5--0--8----3333333--5555555--0000000--8888--8-xx|
A|--3--3--0--8----3333333--3333333--0000000--8888--8-xx|
D|--3--0--0--8----3333333--0000000--0000000--8888--8-xx|

e|--xxxxxxx--xxxxxxx--xxxxxxx--xxxxxxx|     
B|--xxxxxxx--xxxxxxx--xxxxxxx--xxxxxxx|     
G|--xxxxxxx--5555555--xxxxxxx--xxxxxxx|4X    
D|--3333333--5555555--0000000--8888888|     
A|--3333333--3333333--0000000--8888888|     
E|--3333333--0000000--0000000--8888888|     
  
Outro

e|--x|
B|--x|
G|--x|
D|--3|
A|--3|
E|--3|
Suggest correction new What's this?
You can suggest a correction to this tab. Community and Mods will review your correction and vote to approve or reject it.
comments
We did not receive enough feedback on this tab! Please rate:
print report bad tab
1 2 3 4 5
1 comment total.
0 reply
DogASaurousRex 42 wrote on October 2 2013, 11:40 pm

Looks good! I haven't played through it enough to know if there are any differences, though. If not, I'll give it 5 stars. But good job!

guest
You may want to rate the tab now too:
select rating
Please do not post tabs as comments. Select "correction" instead!