Oops, an error
Loading. Please wait.

Hurricane Streets Bass Tab

version 1
version 1

Whole song

2,215 views 1 this week
1 commentread comment
1 2 3 4 5
please rate
add to favorites
launch autoscroll
font size
0
reset
guitar tuner
Tab Pro tools
  • play this tab
  • loop segment
  • change instrument
  • show fretboard
  • metronome
×
Best way to learn
"Hurricane Streets"
Autoscroll
slow
fast
+/-
esc
set tempo
stop
Contributor
Hey Monday -- Hurricane Streets

G|-------------------------------------------------|
D|-------------------------------------------------|
A|-77----22----44----------77----22----------22----|
E|-------------------44----------------44----------|

                                         x4
| |-------------------------------------| |
|o|-------------------------------------|o|
|o|-77777777-22222222-44444444-00000000-|o|
| |-------------------------------------| |

|------------------------------------------------------------------|
|------------------------------------------------------------------|
|-2222222222222222-77----22----44----------00----22----44----22----|
|------------------------------------44----------------------------|

|-------------------------------------------------|
|-------------------------------------------------|
|-77----22----44----------00----22----44----22----|
|-------------------44----------------------------|

|-----------------------------------|
|-----------------------------------|
|-7777777777777777-2222222222222222-|
|-----------------------------------|

                                         x4
| |-------------------------------------| |
|o|-------------------------------------|o|
|o|-77777777-22222222-44444444-00000000-|o|
| |-------------------------------------| |

|------------------------------------------------------------------|
|------------------------------------------------------------------|
|-2222222222222222-77----22----44----------00----22----44----22----|
|------------------------------------44----------------------------|

|-------------------------------------------------|
|-------------------------------------------------|
|-77----22----44----------00----22----44----22----|
|-------------------44----------------------------|

                                                                         x2
| |---------------------------------------------------------------------| |
|o|------------------6666666666666666-7777777777777777-9999999999999999-|o|
|o|-7777777777777777----------------------------------------------------|o|
| |---------------------------------------------------------------------| |

| |-------------------------------------------------|
|o|-------------------------------------------------|
|o|-77----22----44----------00----22----44----22----|
| |-------------------44----------------------------|

                                                   x2
|-------------------------------------------------| |
|-------------------------------------------------|o|
|-77----22----44----------00----22----44----22----|o|
|-------------------44----------------------------| |

|----------|
|----------|
|----------|
|-0---00---|
comments
We did not receive enough feedback on this tab! Please rate:
print report bad tab
1 2 3 4 5
1 comment total.
0 reply
MusicMan24 wrote on December 21 2008, 07:59 pm

Perfect

I want to post or [tab]
guest
You may want to rate the tab now too:
select rating
Please do not post tabs as comments. Select "correction" instead!