Oops, an error
Loading. Please wait.

Hurricane Streets Tab

version 1
version 1

Whole song

5,760 views 3 this week
5 commentsread comments
1 2 3 4 5
accurate
x 4
add to favorites
launch autoscroll
font size
0
reset
how to read this tab
guitar tuner
Autoscroll
slow
fast
+/-
esc
set tempo
stop
Help us to improve Ultimate-Guitar.com Take our survey!
×
Hurricane Streets
Hey Monday

This is my FIRST tab everr.
Thought i`d tab it cause no one else had! 
it sounds pretty much right to me. hope it helps!


Intro:

e|--0-0-----------0---------------------------------0------|
B|------0-2-7-5-2---0-2-5-7-10-9-7-9-----------------------|
G|-------------------------------------x2---end on---------|
D|---------------------------------------------------------|
A|---------------------------------------------------------|
E|---------------------------------------------------------|


Verse 1

e|------------------------------------------------------------------|
B|------------------------------------------------------------------|
G|--9-------4-------6-----------------do it all 4 times-------------|
D|--9--x4---4--x4---6--x4---7---x4----then last time end on---9-----|
A|--7-------2-------4-------7---------------------------------9-----|
E|--------------------------5---------------------------------7-----|

Chorus:

e|-------------------------do this all twice!------------------------|
B|-------------------------------------------------------------------|
G|--9-------4-------6-----------------------9----------------4-------|
D|--9--x2---4--x2---6--x2---6-------7-------9--x2---7--------4--x2---|
A|--7-------2-------4-------6--x2---7--x2---7-------7--x2----2-------|
E|--------------------------4-------5---------------5----------------|


e|--0-0-----------0-------------------------------------------|
B|------0-2-7-5-2---0-2-5-7-10-9-7-9--------------------------|
G|------------------------------------------------------------|
D|------------------------------------------------------------|
A|------------------------------------------------------------|
E|------------------------------------------------------------|



Verse 2

e|------------------------------------------------------------------|
B|------------------------------------------------------------------|
G|--9-------4-------6-----------------do it all 4 times-------------|
D|--9--x4---4--x4---6--x4---7---x4----then last time end on---9-----|
A|--7-------2-------4-------7---------------------------------9-----|
E|--------------------------5---------------------------------7-----|


Chorus:

e|-------------------------do this all twice!------------------------|
B|-------------------------------------------------------------------|
G|--9-------4-------6-----------------------9----------------4-------|
D|--9--x2---4--x2---6--x2---6-------7-------9--x2---7--------4--x2---|
A|--7-------2-------4-------6--x2---7--x2---7-------7--x2----2-------|
E|--------------------------4-------5---------------5----------------|


Bridge:

e|-------------------------------------------------------------------|
B|-------------------------------------------------------------------|
G|---------4------6------9-------------4-------6-------4-------------|
D|--7------4--x8--6--x8--9--x8--7------4--x8---6--x8---4--x8---------|
A|--7--x8--2------4------7------7--x8--2-------4-------2-------------|
E|--5---------------------------5------------------------------------|


Chorus: 

e|-------------------------do this all twice!------------------------|
B|-------------------------------------------------------------------|
G|--9-------4-------6-----------------------9----------------4-------|
D|--9--x2---4--x2---6--x2---6-------7-------9--x2---7--------4--x2---|
A|--7-------2-------4-------6--x2---7--x2---7-------7--x2----2-------|
E|--------------------------4-------5---------------5----------------|


e|-------------------------do this all twice!------------------------|
B|-------------------------------------------------------------------|
G|--9-------4-------6-----------------------9----------------4-------|
D|--9--x2---4--x2---6--x2---6-------7-------9--x2---7--------4--x2---|
A|--7-------2-------4-------6--x2---7--x2---7-------7--x2----2-------|
E|--------------------------4-------5---------------5----------------|


e|----end on-----------------|
B|---------------------------|
G|---------------9-----------|
D|---------------9-----------|
A|---------------7-----------|
E|---------------------------|





hope its right! 
ratee and comment !
thanks.x

Suggest correction
comments
print report bad tab
5 comments total. Showing first comments.
0 reply
MusicMan24 1,114 wrote on April 27 2009, 12:39 pm

The verse should go like this:

e|------------------------------------|
B|------------------------------------|
G|99999999-44444444-66666666-22222222-|
D|99999999-44444444-66666666-22222222-|
A|77777777-22222222-44444444-00000000-|
E|------------------------------------|

All palm muted. And you play it all four times.

0 reply
wakoko323 51 wrote on July 20 2009, 03:41 am

i think the bridge part is not so clear

0 reply
mollybears 10 wrote on July 30 2009, 05:16 pm

me i love it its perfect for me!

guest
You may want to rate the tab now too:
select rating
Wanna post a correction for this tab? Suggest correction