Oops, an error
Loading. Please wait.

Hurricane Streets Bass Tab

version 3
version 3

Whole song

173 views 1 this week
no commentswrite comment
1 2 3 4 5
please rate
add to favorites
launch autoscroll
font size
0
reset
guitar tuner
Tab Pro tools
  • play this tab
  • loop segment
  • change instrument
  • show fretboard
  • metronome
×
Best way to learn
"Hurricane Streets"
Autoscroll
slow
fast
+/-
esc
set tempo
stop
Difficulty
novice
|----------------------------------------------------------|
|----------------------------------------------------------|
|77--------------77----------------------------------------|
|----77--99--44------77--44--77----------------------------|

|----------------------------------------------------------|x4
|----------------------------------------------------------|
|77777777--------------------------------------------------|
|---------777777777-99999999-55555555----------------------|

|----------------------------------------------------------|
|----------------------------------------------------------|
|----------------------------------------------------------|
|777777777777777777----------------------------------------|

|----------------------------------------------------------|x2
|----------------------------------------------------------|
|77--------------------------------------------------------|
|---77-99-44-55-77-99-77-----------------------------------|

|----------------------------------------------------------|
|----------------------------------------------------------|
|77777777777777777-----------------------------------------|
|------------------77777777777777777-----------------------|

|----------------------------------------------------------|x4
|----------------------------------------------------------|
|77777777--------------------------------------------------|
|---------777777777-99999999-55555555----------------------|

|----------------------------------------------------------|
|----------------------------------------------------------|
|----------------------------------------------------------|
|777777777777777777----------------------------------------|

|----------------------------------------------------------|x2
|----------------------------------------------------------|
|77--------------------------------------------------------|
|---77-99-44-55-77-99-77-----------------------------------|

|-------------------------------------------------------------------|x2
|----------------6666666666666666-7777777777777777-9999999999999999-|
|7777777777777777---------------------------------------------------|
|-------------------------------------------------------------------|

|----------------------------------------------------------|x2
|----------------------------------------------------------|
|77--------------------------------------------------------|
|---77-99-44-55-77-99-77-----------------------------------|

(let all of this set ring, dont mute them)
|-------------------------------------------------------------------|x2
|-------------------------------------------------------------------|
|7-7-7-7------------------------------------------------------------|
|--------7-7-7-7-7-9-9-9-9-4-4-4-4-5-5-5-5-7-7-7-7-9-9-9-9-7-7-7-7--|

|------------|
|------------|
|------------|
|0~--00------|

comments
We did not receive enough feedback on this tab! Please rate:
print report bad tab
1 2 3 4 5
I want to post or [tab]
guest
You may want to rate the tab now too:
select rating
Please do not post tabs as comments. Select "correction" instead!