Oops, an error
Loading. Please wait.

I Dont Wanna Dance Bass Tab

version 1
version 1

Whole song

2,629 views 1 this week
1 commentread comment
1 2 3 4 5
please rate
add to favorites
launch autoscroll
font size
0
reset
guitar tuner
Autoscroll
slow
fast
+/-
esc
set tempo
stop
Help us to improve Ultimate-Guitar.com Take our survey!
×
Contributor
Difficulty
novice
Hey Monday  I Dont Wanna Dance Bass Tabs by Dali
INTRO:
G|----------------------------------------------------|
D|----------------------------------------------------|
A|--------------2-2-2-2-2-2---------------3-3-3-3-3-3-|
E|-3-3-3-3-3-3---------------0-0-0-0-0-0--------------|

VERSE 1:
G|---------------------------------0-0-0-0-0-0-0-0-0-0-0-0-0--| 
D|-9-9-9-9-9-9-9-9-7-7-7-7-7-7-7-7----------------------------| x3
A|------------------------------------------------------------|
E|------------------------------------------------------------|

G|---------------------------------0-0-0-0-0-0-0-0-0-0-0-0-x--| 
D|-9-9-9-9-9-9-9-9-7-7-7-7-7-7-7-7----------------------------| 
A|------------------------------------------------------------|
E|------------------------------------------------------------|
CHORUS:
G|----------------------------------------------------|
D|----------------------------------------------------|  x2
A|--------------2-2-2-2-2-2---------------3-3-3-3-3-3-|
E|-3-3-3-3-3-3---------------0-0-0-0-0-0--------------|

G|----------------------------------------------------|
D|----------------------------------------------------|
A|--------------3-3-3-3-3-3---------------5-5-5-5-5-5-|
E|-0-0-0-0-0-0---------------3-3-3-3-3-3--------------|

G|-------------------------------------------|
D|-------------------------------------------|   
A|--------------2-2-2-2-2-2---------------3\-|
E|-3-3-3-3-3-3---------------0-0-0-0-0-0-----|

G|----------------------------------------------------| 
D|----------------------------------------------------|   x2
A|--------------2-2-2-2-2-2---------------3-3-3-3-3-3-|
E|-3-3-3-3-3-3---------------0-0-0-0-0-0--------------|

VERSE 2:
G|----------------------------------------------------|
D|----------------------------------------------------|
A|-7-7-x-7-x---5--x-5-x-5-----------------------------|
E|--------------------------5-5-x-5-x-5-5-5-5---x-3-3-|

G|--------------------------------------------|
D|--------------------------------------------|
A|-7-7-x-7-x---5--x-5-x-5---------------------|
E|--------------------------5-5-x-5-x-5-5-5-5-|

G|---------------------------------------------------------------------|
D|---------------------------------------------------------------------|
A|-----------7-7--x--7--x--5-5-5-5--x--5--4-4--x--4--x--4-4-4-4--5-5-5-|
E|---------------------------------------------------------------------|

G|--------------------------------------------------------|
D|--------------------------------------------------------|
A|-7-7--x--7--x--5-5-5-5--x--5--4-4--x--4--x--4-4-4-4-----|
E|--------------------------------------------------------|

CHORUS

BRIDGE
G|----------------------------------------------------|
D|----------------------------------------------------|
A|-0-0-0-0-0-0--3-3-3-3-3-3---------------------------|
E|---------------------------3-3-3-3-3-3--2-2-2-2-2-2-|

G|-----------------------------------------------------------------|
D|-----------------------------------------------------------------|
A|-0-0-0-0-0-0--3-3-3-3-3-3----------------------------------------|
E|---------------------------0-0-0-0-0-0--3-3-3-3-3-3--2-2-2-2-2-2-|

CHORUS

G|----------------------------------------------------| 
D|----------------------------------------------------|   x4
A|--------------2-2-2-2-2-2---------------3-3-3-3-3-3-|
E|-3-3-3-3-3-3---------------0-0-0-0-0-0--------------|

End: E|3

This is my very first tab, so maybe Im wrong, any question or suggestion at:
mcdalioficial@hotmail.com
Enjoy ;D
comments
We did not receive enough feedback on this tab! Please rate:
print report bad tab
1 2 3 4 5
1 comment total.
0 reply
Ragin_Asian 120 wrote on November 2 2010, 02:51 am

just missing a few minor variations in the chorus and verse
very well done :3

I want to post or [tab]
guest
You may want to rate the tab now too:
select rating
Please do not post tabs as comments. Select "correction" instead!