Oops, an error
Loading. Please wait.

I Dont Wanna Dance Tab

version 2
version 2

Whole song

7,659 views 1 this week
no commentswrite comment
1 2 3 4 5
excellent!
x 4
add to favorites
launch autoscroll
font size
0
reset
how to read this tab
guitar tuner
Autoscroll
slow
fast
+/-
esc
set tempo
stop
Help us to improve Ultimate-Guitar.com Take our survey!
×
Contributor
-------------------------------------------------------------------------------
                             I Dont Wanna Dance - Hey Monday
-------------------------------------------------------------------------------
Tabbed by: Theonelink
Email: Jimmy1927537534@btinternet.com


Ive tabbed out a mix of lead and rhythm
(The bits that I think sound the best)
I've watched live videos of them playing this song so I'm
sure this is accurate.

Tuning: Standard
I'm fairly sure the band play in Drop D but ive just done this in standard,
no difference in sound.


INTRO:

(Clean) 
e|------------------------------------------------|
B|-------------------------------------------0----|
G|---9--9--9---9-----7--7--7---7------9--9---0----|  
D|-9--9------9-----9--9------9------7--7--7-------|
A|------------------------------------------------|
E|------------------------------------------------|

(Distortion)
e|----------------------------------------------------|
B|----------------------------------------------------|
G|--------------4-4-4-4-4-4---------------5-5-5-5-5-5-|
D|-5-5-5-5-5-5--4-4-4-4-4-4--2-2-2-2-2-2--5-5-5-5-5-5-|
A|-5-5-5-5-5-5--2-2-2-2-2-2--2-2-2-2-2-2--3-3-3-3-3-3-|
E|-3-3-3-3-3-3---------------0-0-0-0-0-0--------------|


VERSE 1:

(Clean)
e|------------------------------------------------------------|
B|-------------------------------------------0--------------0-|
G|---9--9--9---9-----7--7--7---7------9--9---0-------9--9---0-| Repeat
D|-9--9------9-----9--9------9------7--7--7--------7--7--7----|   3x
A|------------------------------------------------------------|
E|------------------------------------------------------------|

e|------------------------------------------------|
B|-------------------------------------------0----|
G|---9--9--9---9-----7--7--7---7------9--9---0----|
D|-9--9------9-----9--9------9------7--7--7-------|
A|------------------------------------------------|
E|------------------------------------------------|


CHORUS:

e|----------------------------------------------------|
B|----------------------------------------------------|
G|--------------4-4-4-4-4-4---------------5-5-5-5-5-5-| Repeat
D|-5-5-5-5-5-5--4-4-4-4-4-4--2-2-2-2-2-2--5-5-5-5-5-5-|   2x
A|-5-5-5-5-5-5--2-2-2-2-2-2--2-2-2-2-2-2--3-3-3-3-3-3-|
E|-3-3-3-3-3-3---------------0-0-0-0-0-0--------------|

e|----------------------------------------------------|
B|----------------------------------------------------|
G|--------------5-5-5-5-5-5---------------7-7-7-7-7-7-|
D|-2-2-2-2-2-2--5-5-5-5-5-5--5-5-5-5-5-5--7-7-7-7-7-7-|
A|-2-2-2-2-2-2--3-3-3-3-3-3--5-5-5-5-5-5--5-5-5-5-5-5-|
E|-0-0-0-0-0-0---------------3-3-3-3-3-3--------------|

e|-------------------------------------------|
B|-------------------------------------------|
G|--------------4-4-4-4-4-4---------------5\-| 
D|-5-5-5-5-5-5--4-4-4-4-4-4--2-2-2-2-2-2--5\-|   
A|-5-5-5-5-5-5--2-2-2-2-2-2--2-2-2-2-2-2--3\-|
E|-3-3-3-3-3-3---------------0-0-0-0-0-0-----|

e|----------------------------------------------------|
B|----------------------------------------------------|
G|--------------4-4-4-4-4-4---------------5-5-5-5-5-5-| Repeat
D|-5-5-5-5-5-5--4-4-4-4-4-4--2-2-2-2-2-2--5-5-5-5-5-5-|   2x
A|-5-5-5-5-5-5--2-2-2-2-2-2--2-2-2-2-2-2--3-3-3-3-3-3-|
E|-3-3-3-3-3-3---------------0-0-0-0-0-0--------------|

e|-------------------|
B|-------------------|
G|--------------9\---| Little bit that leads into
D|---7-7-7-7--x-9\---| verse 2 (slight distortion)  
A|---7-7-7-7--x-7\---|
E|---5-5-5-5--x------|


VERSE 2:

(Slight Distortion)
e|----------------------------------------------------|
B|----------------------------------------------------|
G|-9-9-x-9-x---7--x-7-x-7-----------------------------|
D|-9-9-x-9-x---7--x-7-x-7---7-7-x-7-x-7-7-7-7---x-5-5-|
A|-7-7-x-7-x---5--x-5-x-5---7-7-x-7-x-7-7-7-7---x-5-5-|
E|--------------------------5-5-x-5-x-5-5-5-5---x-3-3-|

e|--------------------------------------------|
B|--------------------------------------------|
G|-9-9-x-9-x---7--x-7-x-7---------------------|
D|-9-9-x-9-x---7--x-7-x-7---7-7-x-7-x-7-7-7-7-|
A|-7-7-x-7-x---5--x-5-x-5---7-7-x-7-x-7-7-7-7-|
E|--------------------------5-5-x-5-x-5-5-5-5-|

(Other guitar comes in)
e|---------------------------------------------------------------------|
B|-----8---------------------------------------------------------------|
G|-9-9---9---9-9--x--9--x--7-7-7-7--x--7--6-6--x--6--x--6-6-6-6--7-7-7-|
D|-----------x-x--x--x--x--x-x-x-x--x--x--x-x--x--x--x--x-x-x-x--x-x-x-|
A|-----------7-7--x--7--x--5-5-5-5--x--5--4-4--x--4--x--4-4-4-4--5-5-5-|
E|---------------------------------------------------------------------|

e|--------------------------------------------------------|
B|-----------------------------------------------------8\-|
G|-9-9--x--9--x--7-7-7-7--x--7--6-6--x--6--x--6-6-6-6-----|
D|-x-x--x--x--x--x-x-x-x--x--x--x-x--x--x--x--x-x-x-x-----|
A|-7-7--x--7--x--5-5-5-5--x--5--4-4--x--4--x--4-4-4-4-----|
E|--------------------------------------------------------|


REPEAT CHORUS.

BRIDGE:

e|----------------------------------------------------|
B|----------------------------------------------------|
G|-2-2-2-2-2-2--5-5-5-5-5-5---------------------------|
D|-2-2-2-2-2-2--5-5-5-5-5-5--5-5-5-5-5-5--3-3-3-3-3-3-|
A|-0-0-0-0-0-0--3-3-3-3-3-3--5-5-5-5-5-5--5-5-5-5-5-5-|
E|---------------------------3-3-3-3-3-3--2-2-2-2-2-2-|


e|-----------------------------------------------------------------|
B|-----------------------------------------------------------------|
G|-2-2-2-2-2-2--5-5-5-5-5-5----------------------------------------|
D|-2-2-2-2-2-2--5-5-5-5-5-5--2-2-2-2-2-2--5-5-5-5-5-5--3-3-3-3-3-3-|
A|-0-0-0-0-0-0--3-3-3-3-3-3--2-2-2-2-2-2--5-5-5-5-5-5--5-5-5-5-5-5-|
E|---------------------------0-0-0-0-0-0--3-3-3-3-3-3--2-2-2-2-2-2-|

(Clean)
e|-----------------------|
B|-----------------------|
G|-----------------------|
D|-----------------------|
A|-----------------------|
E|---12------10-------5--|

FINAL CHORUS:


e|----------------------------------------------------|
B|----------------------------------------------------|
G|--------------4-4-4-4-4-4---------------5-5-5-5-5-5-| Repeat
D|-5-5-5-5-5-5--4-4-4-4-4-4--2-2-2-2-2-2--5-5-5-5-5-5-|   2x
A|-5-5-5-5-5-5--2-2-2-2-2-2--2-2-2-2-2-2--3-3-3-3-3-3-|
E|-3-3-3-3-3-3---------------0-0-0-0-0-0--------------|

e|----------------------------------------------------|
B|----------------------------------------------------|
G|--------------5-5-5-5-5-5---------------7-7-7-7-7-7-|
D|-2-2-2-2-2-2--5-5-5-5-5-5--5-5-5-5-5-5--7-7-7-7-7-7-|
A|-2-2-2-2-2-2--3-3-3-3-3-3--5-5-5-5-5-5--5-5-5-5-5-5-|
E|-0-0-0-0-0-0---------------3-3-3-3-3-3--------------|

e|-------------------------------------------|
B|-------------------------------------------|
G|--------------4-4-4-4-4-4---------------5\-| 
D|-5-5-5-5-5-5--4-4-4-4-4-4--2-2-2-2-2-2--5\-|   
A|-5-5-5-5-5-5--2-2-2-2-2-2--2-2-2-2-2-2--3\-|
E|-3-3-3-3-3-3---------------0-0-0-0-0-0-----|

e|----------------------------------------------------|
B|----------------------------------------------------|
G|--------------4-4-4-4-4-4---------------5-5-5-5-5-5-| Repeat
D|-5-5-5-5-5-5--4-4-4-4-4-4--2-2-2-2-2-2--5-5-5-5-5-5-|   4x
A|-5-5-5-5-5-5--2-2-2-2-2-2--2-2-2-2-2-2--3-3-3-3-3-3-|
E|-3-3-3-3-3-3---------------0-0-0-0-0-0--------------|

e|----------------|
B|----------------|
G|----------------| 
D|--5-------------| 
A|--5----Let-Ring-|
E|--3-------------|




************************************

| /   slide up
| \   slide down
| h   hammer-on
| p   pull-off
| ~   vibrato
| +   harmonic
| x   Mute note
| b   Bend
| pb  Pre-bend
| br  Bend release
| pbr Pre-bend release
| brb Bend release bend

************************************
comments
print report bad tab
I want to post or [tab]
guest
You may want to rate the tab now too:
select rating
Please do not post tabs as comments. Select "correction" instead!