Oops, an error
Loading. Please wait.

In My Head Tab

version 1
version 1

Intro

Whole song

1,696 views 1 this week
no commentswrite comment
1 2 3 4 5
excellent!
x 1
add to favorites
launch autoscroll
font size
0
reset
how to read this tab
guitar tuner
Tab Pro tools
  • play this tab
  • loop segment
  • change instrument
  • show fretboard
  • metronome
Autoscroll
slow
fast
+/-
esc
set tempo
stop
Contributor
Difficulty
novice
In My Head
Hey Monday
FOB182

Tabbed this all from ear, almost 100% some parts are off a little
i decided to tab out the live performance and acoustic performance 2nd verse because 
they are played differently and sorry, no solo.  Will hopefully someday update with 
Alex(rhythm) part

. = palm mute

Mikes Part- Lead guitar

intro- play till chorus
e|---------------------------------------------------------------|
B|---3--0--3--0--3--3--3--0--------------------------------------|
G|--0--0--0--0--0--0--0--0---------------------------------------|
D|---------------------------------------------------------------|
A|-------3--3----------------------------------------------------|
E|-0--0--------3--3--2--2----------------------------------------|

chorus-
e|---------------------------------------------------------------|
B|---------------------------------------------------------------|
G|-16-16-12-12-16-16-14-14---------------------------------------|
D|--x--x--x--x--x--x--x--x---------------------------------------|
A|-14-14-10-10-14-14-12-12---------------------------------------|
E|---------------------------------------------------------------| x2

e|---------------------------------------------------------------|
B|---------------------------------------------------------------|
G|-16-16-12-19-17-16-14-14-14-16-16-12-12-16-16-14-14------------|
D|--x--x--x--x--x--x--x--x--x--x--x--x--x--x--x--x--x------------|
A|-14-14-10-17-15-14-12-12-12-14-14-10-10-14-14-12-12------------|
E|---------------------------------------------------------------|

verse-2 live or
e|---------------------------------------------------------------|
B|---3--0--3--0--3--3--3--0--------------------------------------|
G|--0--0--0--0--0--0--0--0---------------------------------------|
D|---------------------------------------------------------------|
A|-------3--3----------------------------------------------------|
E|-0--0--------3--3--2--2----------------------------------------| x2

e|---------------------------------------------------------------|
B|---------------------------------------------------------------|
G|-----5-5-5-5---------------------------------------------------|
D|-2-2-5-5-5-5-5-5-4-4-4-4---------------------------------------|
A|-2-2-3-3-3-3-5-5-4-4-4-4---------------------------------------|
E|-0-0---------3-3-2-2-2-2---------------------------------------| x2
   . . . . . . . . . . . .
e|---------------------------------------------------------------|
B|--3--0--3--0--3--0--3--0---------------------------------------|
G|-0--0--0--0--0--0--0--0----------------------------------------|
D|---------------------------------------------------------------|
A|---------------------------------------------------------------|
E|---------------------------------------------------------------|

e|---------------------------------------------------------------|
B|---------------------------------------------------------------|
G|-14-14-14-14-14-12-12-12-12------------------------------------|
D|--x--x--x--x--x--x--x--x--x------------------------------------|
A|-12-12-12-12-12-10-10-10-10------------------------------------|
E|---------------------------------------------------------------| x8

verse 2 acoustic-
e|---------------------------------------------------------------|
B|---3--0--3--0--3--3--3--0--------------------------------------|
G|--0--0--0--0--0--0--0--0---------------------------------------|
D|---------------------------------------------------------------|
A|-------3--3----------------------------------------------------|
E|-0--0--------3--3--2--2----------------------------------------| x2

e|---------------------------------------------------------------|
B|-3--3--3--3----------------------------------------------------|
G|-0--0--0--0----------------------------------------------------|
D|---------------------------------------------------------------|
A|----3----------------------------------------------------------|
E|-0-----3--2----------------------------------------------------|
each chord is played multiple times, having trouble counting, just listen to the song to 
figure out the strum pattern.

e|---------------------------------------------------------------|
B|-3-3-3-3-0-0-0-0-----------------------------------------------|
G|-0-0-0-0-0-0-0-0-----------------------------------------------|
D|---------------------------------------------------------------|
A|-3-3-3-3-3-3-3-3-----------------------------------------------|
E|---------------------------------------------------------------| x4
put more emphasis on the g and b strings

chorus-
e|---------------------------------------------------------------|
B|---------------------------------------------------------------|
G|-16-16-12-12-16-16-14-14---------------------------------------|
D|--x--x--x--x--x--x--x--x---------------------------------------|
A|-14-14-10-10-14-14-12-12---------------------------------------|
E|---------------------------------------------------------------| x2

e|---------------------------------------------------------------|
B|---------------------------------------------------------------|
G|-16-16-12-19-17-16-14-14-14-16-16-12-12-16-16-14-14------------|
D|--x--x--x--x--x--x--x--x--x--x--x--x--x--x--x--x--x------------|
A|-14-14-10-17-15-14-12-12-12-14-14-10-10-14-14-12-12------------|
E|---------------------------------------------------------------|

bridge-
e|---------------------------------------------------------------|
B|---------------------------------------------------------------|
G|-----5-5-------------------------------------------------------|
D|-2-2-5-5-5-5-4-4-----------------------------------------------|
A|-2-2-3-3-5-5-4-4-----------------------------------------------|
E|-0-0-----3-3-2-2-----------------------------------------------| x4

e|---------------------------------------------------------------|
B|-3--3--3--3----------------------------------------------------|
G|-0--0--0--0----------------------------------------------------|
D|---------------------------------------------------------------|
A|----3----------------------------------------------------------|
E|-0-----3--2----------------------------------------------------|

e|---------------------------------------------------------------|
B|---------------------------------------------------------------|
G|---------5-5-5-5-----------------------------------------------|
D|-2-2-2-2-5-5-5-5-5-5-5-5-4-4-4-4-------------------------------|
A|-2-2-2-2-3-3-3-3-5-5-5-5-4-4-4-4-------------------------------|
E|-0-0-0-0---------3-3-3-3-2-2-2-2-------------------------------|
second time end right here  |

chorus- till end
e|---------------------------------------------------------------|
B|---------------------------------------------------------------|
G|-16-16-12-12-16-16-14-14---------------------------------------|
D|--x--x--x--x--x--x--x--x---------------------------------------|
A|-14-14-10-10-14-14-12-12---------------------------------------|
E|---------------------------------------------------------------| x2

e|---------------------------------------------------------------|
B|---------------------------------------------------------------|
G|-16-16-12-19-17-16-14-14-14-16-16-12-12-16-16-14-14------------|
D|--x--x--x--x--x--x--x--x--x--x--x--x--x--x--x--x--x------------|
A|-14-14-10-17-15-14-12-12-12-14-14-10-10-14-14-12-12------------|
E|---------------------------------------------------------------|

e|---------------------------------------------------------------|
B|---------------------------------------------------------------|
G|-16-16-12-12-16-16-14-14---------------------------------------|
D|--x--x--x--x--x--x--x--x---------------------------------------|
A|-14-14-10-10-14-14-12-12---------------------------------------|
E|---------------------------------------------------------------| x2

e|---------------------------------------------------------------|
B|---------------------------------------------------------------|
G|-16-16-12-19-17-16-14-14-14-16-16-12-12-16-16-14-14------------|
D|--x--x--x--x--x--x--x--x--x--x--x--x--x--x--x--x--x------------|
A|-14-14-10-17-15-14-12-12-12-14-14-10-10-14-14-12-12------------|
E|---------------------------------------------------------------|

e|---------------------------------------------------------------|
B|---------------------------------------------------------------|
G|-16-16-12-12-16-16-14-14---------------------------------------|
D|--x--x--x--x--x--x--x--x---------------------------------------|
A|-14-14-10-10-14-14-12-12---------------------------------------|
E|---------------------------------------------------------------|

end on
e|---|
B|---|
G|-12|
D|--x|
A|-10|
E|---|
comments
We did not receive enough feedback on this tab! Please rate:
print report bad tab
1 2 3 4 5
I want to post or [tab]
guest
You may want to rate the tab now too:
select rating
Please do not post tabs as comments. Select "correction" instead!