Oops, an error
Loading. Please wait.

Josey Tab

version 2
version 2

Whole song

3,335 views 1 this week
3 commentsread comments
1 2 3 4 5
excellent!
x 1
add to favorites
launch autoscroll
font size
0
reset
how to read this tab
guitar tuner
Tab Pro tools
  • play this tab
  • loop segment
  • change instrument
  • show fretboard
  • metronome
Autoscroll
slow
fast
+/-
esc
set tempo
stop
Contributor
Hey Guys!
This is my first tab.
This is how I play it.

Intro
Guitar 1 (Listen to song for strumming)
E	|---x-----x---x---x|
H	|---x-----x---x---x|
G	|---x-----x---x---x|
D	|1--x--5--x—6-x—3-x|
A	|1--x--5--x—6-x—3-x|
D	|1--x--5--x—6-x—3-x|   1x

Guitar 2			   3x|				1x
E    |-------------------------------||---------------------------------|
H    |--------------------------8-8-||--------------8-8-8---------------|
G    |-8-8-8-------10-10-10---------||--8-8-8-----------------10-10-----|
D    |--------8-8-8-----------------||---------8-8-8--------------------|
A    |-------------------------------||---------------------------------|
D    |-------------------------------||---------------------------------|


Verse
Guitar1 (Listen to song for strumming)
E    |------------------------------------------|
H    |------------------------------------------|
G    |------------------------------------------|
D    |1----------3/6-----------5\8--------------|
A    |1-(x32)----3/6-(x16)-----5\8-(x16)--------|
D    |1----------3/6-----------5\8--------------| 2x
------------------------------------------------|    (muted)->->->->->->->->->->->
PreChorus
E	|------------------------------------|
H	|------------------------------------|
G	|------------------------------------|
D	|3-------x-------5-x-------6-------8-|
A	|3-(x4)--x-(4x)--5-x-(4x)--6-(8x)--8-|
D	|3-------x-------5-x-------6-------8-|
				(muted)->

Chorus (Listen for strumming)
E	|--------|
H	|--------|
G	|--------|
D	|1—6—3—6-|
A	|1—6—3—6-|
D	|1—6—3—6-|  2x

Verse 2x

PreChorus

Chorus 2x


Solo (Guitar 1)
E	|--------|------|
H	|--------|------|
G	|--------|------|
D	|1—6—3—6-|-1~~--|
A	|1—6—3—6-|-1~~--|
D	|1—6—3—6-|-1~~--|


Solo (Guitar 2)
E    |-------------------------------------------------------------------------------|
H    |-11-11    -----11-11-13-11-11-----11-------------------------------------------|
G    |--------    -12---------------------12-----10-12-10-10----10~ 10-12-10-10------|
D    |----------------------------------------------------13------------------13-10--|
A    |-------------------------------------------------------------------------------|
D    |-------------------------------------------------------------------------------|


(Verse)Pause, Then
E    |------------------|
H    |------------------|
G    |------------------|
D    |13\---------------|
A    |13\---------------|
D    |13\---------------|

Chorus(1step up)
E	|--------|
H	|--------|
G	|--------|
D	|3—8—5—8-|
A	|3—8—5—8-|
D	|3—8—5—8-|  4x

End On
E	|----------------|
H	|----------------|
G	|----------------|
D	|3---------------|
A	|3---------------|
D	|3---------------|
comments
We did not receive enough feedback on this tab! Please rate:
print report bad tab
1 2 3 4 5
3 comments total.
0 reply
JessicaGonzo wrote on July 22 2009, 11:39 pm

"H string"? wow

0 reply
Kreashion wrote on October 22 2009, 08:31 pm

Dude wtf? H string? I'm not even gonna bother trying this is the tabber doesn't know how to read music. There is no such "H" note in music.

0 reply
Quik Axe Player wrote on March 16 2010, 02:51 am

It's called a typo, an h is right next to a b on a keyboard.

I want to post or [tab]
guest
You may want to rate the tab now too:
select rating
Please do not post tabs as comments. Select "correction" instead!