Oops, an error
Loading. Please wait.

Mr Pushover Bass Tab

254 views 1 this week
no commentswrite comment
1 2 3 4 5
please rate
add to favorites
launch autoscroll
font size
0
reset
guitar tuner
Autoscroll
slow
fast
+/-
esc
set tempo
stop
Help us to improve Ultimate-Guitar.com Take our survey!
×
Author
0:15
G|----------------------------------------|
D|----------------------------------------|
A|-7--7-10--10------5--5-7--7-10--10------|
E|-------------8--8------------------8--8-|

0:27
G|----------------------------------------------------------------------------------------------|
D|------------------------------5---------12----------------------------------------------------|
A|-5--5-5-7--7-7\5/10--10-10\3----53-5-5-----1012-7--7-7\5/10--10-10\3--3-3~~---5~/171717171717-|
E|----------------------------------------------------------------------------------------------|

0:45
G|---------------------11h12-11h12--------------------------------------11h1211----5-5-5-|
D|-----------5---5--------------------------------------------5---5----------------------|
A|-7-7-7-7---------5-5-------------3-3-/15151515-10-7-7-7-7---------5-5----------3-------|
E|---------3---3--------------------------------------------3---3------------------------|

1:00
G|---------------------------------------------------------------------|
D|---------------------------------------------------------------------|
A|---------------------7-7-7-7\3-3-3-3---------------------7-7-7-7\3~~-|
E|-3-3-3-3/10-10-10-10-----------------3-3-3-3/10-10-10-10-------------|

1:16
G|---------------------------------------------------------------------|
D|---------------------------------------------------------------------|
A|-7--7/10--10\3--3/5--5-5-7--7-10--10------5--5-5-----------3--3-5--5-|
E|-------------------------------------8--8--------0--0-3--3-----------|

1:36
G|----------------------------------------------------------------------------------------|
D|-----------------------------7012h13p12-\2----------------------------------------------|
A|---7--/7\/10--10-10\3--3-3-5--------------------------10-10\3--3-3~~---5-5/171717171717-|
E|-0---0-------------------------------------0-0h3p0-3------------------------------------|

1:53
G|---------------------11h12-11h12--------------------------------------11h1211----------|
D|-----------5---5--------------------------------------------5---5----------------------|
A|-7-7-7-7---------5-5-------------3-3-/15151515-10-7-7-7-7---------5-5----------3-3-3-3-|
E|---------3---3--------------------------------------------3---3------------------------|

2:08
G|----------------------------------------------------------------------------------|
D|----9-12---------12---------9-------10-12p10----9-12---------12---------9---------|
A|-10------10-9-12----12-7-10---7-3-5----------10------10-9-12----12-7-10---7-3~~---|
E|----------------------------------------------------------------------------------|

2:28
G|-------------------------------12-----------------------------------------|
D|--------------------------------------------------------------------------|
A|-3-3-3-3-5-5-5-5-7-7-7-7-10-10----10-3-3-3-3-5-5-5-5-7-7-7-7-10-10-10-10\-|
E|--------------------------------------------------------------------------|

2:40
G|---------------------------------912-----------------------------------------------------|
D|-------------------------------10---12---------------------------------------------------|
A|-3---3---3h5--5---7---7---7h10---------3---3---3h5--5---7---7---101010101010101010101010-|
E|-----------------------------------------------------------------------------------------|
                                                                     10(x12)
2:55
G|---------------------11h12-11h12------------------------------------------------------|
D|-----------5---5---------------------------------------5--------------------11h12p119-|
A|-7-7-7-7---------5-5-------------3\----/10\3/7-7-7-7-----0-3-5-5-12-109-3-3-----------|
E|---------3---3---------------------------------------3--------------------------------|

3:12
G|----12--------------------------------------------12---------------------------|
D|---------------7-------9-------------------------------------7-------9---------|
A|-10----10-12-5---9-5-7---9-7-3-3-/151515151515-10----10-12-5---9-5-7---9-7-3~~-|
E|-------------------------------------------------------------------------------|

3:26
G|---------------------------------------|
D|---------------------------------------|
A|-7--7/10--10\3--3/5--5/7--7/10--10\3~~-|
E|---------------------------------------|
Tabbed by Dave Vucko
Suggest correction
What's this?
You can suggest a correction to this tab. Community and Mods will review your correction and vote to approve or reject it.
comments
We did not receive enough feedback on this tab! Please rate:
print report bad tab
1 2 3 4 5
guest
You may want to rate the tab now too:
select rating
Please do not post tabs as comments. Select "correction" instead!