Oops, an error
Loading. Please wait.

Mr Pushover Tab

601 views 1 this week
no commentswrite comment
1 2 3 4 5
please rate
add to favorites
launch autoscroll
font size
0
reset
how to read this tab
guitar tuner
Autoscroll
slow
fast
+/-
esc
set tempo
stop
Help us to improve Ultimate-Guitar.com Take our survey!
×
Author
Difficulty
Tuning
novice
D A D G B E
This is the acoustic guitar/Cassadee Pope's parts
Figure out the strumming pattern on your own and how many times to play each 
thing. Heres a cover that might help with the strumming http://www.youtube.com/watch?v=hnIQcOnNGQ0

|--3-3--3-3--3-3--3-3--|
|--3-3--3-3--3-3--3-3--|  
|--2-2--0-0--0-0--2-2--|
|--2-2--0-0--0-0--0-0--|
|--2-2--2-2--3-3--0-0--|
|--2-2--X-X--X-X--X-X--|


|--3-3--3-3--3-3--3~~~---|
|--3-3--3-3--3-3--3~~~---|  
|--2-2--0-0--0-0--0~~~---|
|--2-2--0-0--0-0--0~~~---|
|--2-2--2-2--3-3--3~~~---|
|--2-2--X-X--X-X--X------|

|--------3--3--|
|--------3--3--|
|--------2--0--|    x2
|--2--5--0--0--|
|--2--5--0--3--|
|--2--5--X--X--|

|-----2--3--3--|
|-----3--3--3--|
|-----2--2--0--|
|--5--0--2--0--|   x2 on the second time you make the last chord ring
|--5--0--2--3--|
|--5--X--2--X--|

|--3-3--3-3--3-3--3-3--|
|--3-3--3-3--3-3--3-3--|  
|--2-2--0-0--0-0--2-2--|
|--2-2--0-0--0-0--0-0--|
|--2-2--2-2--3-3--0-0--|
|--2-2--X-X--X-X--X-X--|

|--------3--3--|
|--------3--3--|
|--------2--0--|    x2
|--2--5--0--0--|
|--2--5--0--3--|
|--2--5--X--X--|

|-----2--3--3--|
|-----3--3--3--|
|-----2--2--0--|
|--5--0--2--0--|   x2 on the second time you make the last chord ring
|--5--0--2--3--|
|--5--X--2--X--|

PM .............    
|--3--3--3-----|
|--3--3--3-----|
|--0--2--2-----|
|--0--0--2--5--|  x2
|--3--0--2--5--|
|--X--X--2--5--|


|--3--3-----3--|
|--3--3-----3--|
|--2--2-----0--|
|--0--2--5--0--|  x2
|--0--2--5--3--|
|--X--2--5--X--|

|--------3--3--|
|--------3--3--|
|--------2--0--|    x2
|--2--5--0--0--|
|--2--5--0--3--|
|--2--5--X--X--|

|-----2--3--3--|
|-----3--3--3--|
|-----2--2--0--|
|--5--0--2--0--|   x2 on the second time you make the last chord ring
|--5--0--2--3--|
|--5--X--2--X--|

|--3-3--3-3--3-3--3-3--|
|--3-3--3-3--3-3--3-3--|  
|--2-2--0-0--0-0--2-2--|
|--2-2--0-0--0-0--0-0--|
|--2-2--2-2--3-3--0-0--|
|--2-2--X-X--X-X--X-X--|

End on 
|--3~~~--|
|--3~~~--|
|--0~~~--|
|--0~~~--|
|--3~~~--|
|--X-----|

Please Rate
Suggest correction
What's this?
You can suggest a correction to this tab. Community and Mods will review your correction and vote to approve or reject it.
comments
We did not receive enough feedback on this tab! Please rate:
print report bad tab
1 2 3 4 5
guest
You may want to rate the tab now too:
select rating
Please do not post tabs as comments. Select "correction" instead!