Oops, an error
Loading. Please wait.

Obvious Bass Tab

3,261 views 1 this week
no commentswrite comment
1 2 3 4 5
2 more votes to show rating
add to favorites
launch autoscroll
font size
0
reset
guitar tuner
Autoscroll
slow
fast
+/-
esc
set tempo
stop
Help us to improve Ultimate-Guitar.com Take our survey!
×
G|---------------------------------------------------------------|
D|---------------------------------------------------------------|
A|---------------------------------------------------------------|
E|-9-9-9-9-9-9-9-6-2~-2~-2\6-6-6/4-4-9-9-9-9-9-9-9-6-2~-2~-4~-4~-|

|-----------------------|
|-----------------------|
|-----------------------|
|-9----9-4----6----6-22-|

                                                                         
|---------------------------------------------------------------------|
|---------------------------------------------------------------------|
|---------------------------------------------------------------------|
|-9999999999999999-4444444444444444-6666666666666666-2222222222222222-|

|-----------|
|-----------|
|-----------|
|-9~~~~4~~~~|

                                                                         x2
| |---------------------------------------------------------------------| |
|o|---------------------------------------------------------------------|o|
|o|---------------------------------------------------------------------|o|
| |-9999999999999999-4444444444444444-6666666666666666-2222222222222222-| |

|-------------------------------------|
|-------------------------------------|
|-------------------------------------|
|-9-9-xxxx-4-4-xxxx-6-6-xxxx-2-2-xxxx-|

|---------------------------------------------------------------------|
|---------------------------------------------------------------------|
|---------------------------------------------------------------------|
|-9999999999999999-4444444444444444-6666666666666666-2222222222222222-|

                                                                         x2
| |---------------------------------------------------------------------| |
|o|---------------------------------------------------------------------|o|
|o|---------------------------------------------------------------------|o|
| |-9999999999999999-4444444444444444-6666666666666666-2222222222222222-| |

|-----------|
|-----------|
|-----------|
|-9~~~~4~~~~|

                                                                         x2
| |---------------------------------------------------------------------| |
|o|---------------------------------------------------------------------|o|
|o|---------------------------------------------------------------------|o|
| |-9999999999999999-4444444444444444-6666666666666666-2222222222222222-| |

|-------------------------------------|
|-------------------------------------|
|-------------------------------------|
|-9-9-xxxx-4-4-xxxx-6-6-xxxx-2-2-xxxx-|

|---------------------------------------------------------------------|
|---------------------------------------------------------------------|
|---------------------------------------------------------------------|
|-9999999999999999-4444444444444444-6666666666666666-2222222222222222-|

|---------------------------------------------------------------|
|---------------------------------------------------------------|
|---------------------------------------------------------------|
|-9-9-9-9-9-9-9-6-2~-2~-2\6-6-6/4-4-9-9-9-9-9-9-9-6-2~-2~-4~-4~-|

                                       x2
| |-----------------------------------| |------|
|o|-----------------------------------|o|------|
|o|-----------------------------------|o|------|
| |-2222222222222222-4444444444444444-| |-9~~~~|

Short Pause

|---------------------------------------------------------------------|
|---------------------------------------------------------------------|
|---------------------------------------------------------------------|
|-9999999999999999-4444444444444444-6666666666666666-2222222222222222-|

|-----------------------------------------------------------------|
|-----------------------------------------------------------------|
|-----------------------------------------------------------------|
|-9-9-9-9-9-9-9-9-4-4-4-4-4-4-4-4-6-6-6-6-6-6-6-6-2-2-2-2-2-2-2-2-|

                                                                         x2
| |---------------------------------------------------------------------| |
|o|---------------------------------------------------------------------|o|
|o|---------------------------------------------------------------------|o|
| |-9999999999999999-4444444444444444-6666666666666666-2222222222222222-| |

|-------------------------------------|
|-------------------------------------|
|-------------------------------------|
|-9-9-xxxx-4-4-xxxx-6-6-xxxx-2-2-xxxx-|

|---------------------------------------------------------------------|
|---------------------------------------------------------------------|
|---------------------------------------------------------------------|
|-9999999999999999-4444444444444444-6666666666666666-2222222222222222-|

End With
|------|
|------|
|------|
|-9~~~~|
Suggest correction
Give kudos to tab author, rate the tab!
1 2 3 4 5
comments
print report bad tab
guest
You may want to rate the tab now too:
select rating
Wanna post a correction for this tab? Suggest correction