Oops, an error
Loading. Please wait.

Obvious Tab

2,733 views 3 this week
no commentswrite comment
1 2 3 4 5
x 3
add to favorites
launch autoscroll
font size
0
reset
how to read this tab
guitar tuner
Autoscroll
slow
fast
+/-
esc
set tempo
stop
Help us to improve Ultimate-Guitar.com Take our survey!
×
Author
Difficulty
novice
----------------------------------------------------------------------------

                 Obvious - Hey Monday - Hold On Tight

----------------------------------------------------------------------------

Tabbed by: Stef
Email:stefwalaszkowski@hotmail.co.uk

Tuning: Standard (~EADGBe~)

. = Palm Mute
* = Staccato

Hi, This is my first tab, and I'm 99.9% sure it's correct. 
Although I've typed this out for E Standard,
I worked it out with my guitar in Drop D.
If it gives you trouble in standard you might want to try it in drop d as 
I've noticed the shapes (especially in the bridge) are a lot simpler this way.
Overall this song is pretty easy(10 minutes to tab) so hopefully it shouldn't give 
you any problems.

Awesome Song. Awesome Band

 
Intro

Guitar 1
e|----------------------------------------------------------------|
B|----------------------------------------------------------------|
G|-----6-6-6-6-6-6-6----------------------------------------------|
D|-----6-6-6-6-6-6-6--666--4-4--4-8888-666------------------------|
A|-----4-4-4-4-4-4-4--666--4-4--4-8888-666------------------------|
E|--------------------444--2-2--2-6666-444------------------------|

e|---------------------------------------------------------------------------|
B|---------------------------------------------------------------------------|
G|-----6-6-6-6-6-6-6---------------------------------------------------------|
D|-----6-6-6-6-6-6-6--666--4~------6~----------------------------------------|
A|-----4-4-4-4-4-4-4--666--4~------6~----------------------------------------|
E|--------------------444--2~------4~----------------------------------------|

Guitar 2
e|---------------------------------------------------------------------------|
B|---------------------------------------------------------------------------|
G|-----10\8/10---10\8/10---10\8/10---10\8---66-66/8-88-888-------------------|
D|-----x--x--x---x--x--x---x--x--x---x--x---xx-xx-x-xx-xxx-------------------|
A|-----8-\6/-8---8-\6/-8---8-\6/-6---8-\6---44-44/6-66-666-------------------|
E|---------------------------------------------------------------------------|

Verse

Guitar 1
e|------------------------------------------------------|
B|------------------------------------------------------|
G|-----66-----------------------------------------------|
D|-----66------------6-444----------88----------6-444---|
A|-----44------------6-444----------88----------6-444---|
E|-------------------4-222----------66----------4-222---|

e|------------------------------------------------------|
B|------------------------------------------------------|
G|-----66-----------------------------------------------|
D|-----66------------6-444----------88----------6-444---|
A|-888-44------------6-444----------88----------6-444---|
E|-666---------------4-222----------66----------4-222---|
 PM...

Guitar 2 (Come in on Guitar 1's 2nd bar) Use Staccato for the notes with *s. 
e|---------------------------------------------------------------------------|
B|---------------------------------------------------------------------------|
G|---1010101010101010-88888888-66666666-666688881010101010101010-------------|
D|---x-x-x-x-x-x-x-x--xxxxxxxx-xxxxxxxx-xxxxxxxx-x-x-x-x-x-x-x-x-------------|
A|---8-8-8-8-8-8-8-8--66666666-44444444-44446666-8-8-8-8-8-8-8-8-------------|
E|---------------------------------------------------------------------------|
     * * * * * * * *  ******** ******** 

Pre Chorus

Guitar 1
e|---------------------------------------------------------------------------|
B|---------------------------------------------------------------------------|
G|---------------------------------------------------------------------------|
D|--8~------6~---------------------------------------------------------------|
A|--8~------6~---------------------------------------------------------------|
E|--6~------4~---------------------------------------------------------------|

Guitar 2
e|---------------------------------------------------------------------------|
B|---------------------------------------------------------------------------|
G|-10~------8~---------------------------------------------------------------|
D|--x-------x----------------------------------------------------------------|
A|--8~------6~---------------------------------------------------------------|
E|---------------------------------------------------------------------------|

Chorus - Both Guitars

e|---------------------|\      |-----------------------------------|\
B|---------------------| \     |-----------------------------------| \
G|-6-------------------|  \ X 2|---66-xxxx-------------------------|  \ X 1
D|-6-x8-6----8----4----|  /    |---66-xxxx-66-xxxx-88-xxxx-44-xxxx-|  /
A|-4----6-x8-8-x8-4-x8-| /     |---44-xxxx-66-xxxx-88-xxxx-44-xxxx-| /
E|------4----6----2----|/      |-----------44-xxxx-66-xxxx-22-xxxx-|/

e|---------------------|\
B|---------------------| \
G|-6-------------------|  \ X 1
D|-6-x8-6----8----4----|  /
A|-4----6-x8-8-x8-4-x8-| /
E|------4----6----2----|/

Repeat Verse

Repeat Pre Chorus

Repeat Chorus

Repeat Intro

Bridge

Both Guitars
e|----------------------------------|
B|----------------------------------|
G|----------------------------------|
D|-8----7----6----5----4-----6------|
A|-8-x8-8-x8-6-x8-6-x8-4-x16-6-x16--|
E|-6----5----4----3----2-----4------|

2nd Chorus

\\\\\\\\\\\\\\Clean/Acoustic/////////////////    
e|---------4~------6~------2~--------------4~--------------------------------|
B|-6~------4~------6~------2~------6~------4~--------------------------------|
G|-6~------5~------6~------3~------6~------5~--------------------------------|
D|-6~------6~------8~------4~------6~------6~----\\\\\\\\\\\\\\\\\\\\\\\\\\\\|
A|-4~------6~------8~------4~------4~------6~----\\\\\\\\\\\\\\Pickslide\\\\\|
E|---------4~------6~------2~--------------4~----////////////////////////////|

e|-----------------------------------------------|
B|-----------------------------------------------|
G|-6-----------------------6---------------------|
D|-4-x8-6----8----4--------6-x4-6----8----4------|
A|-4----6-x8-8-x8-4-x8-----4----6-x4-8-x4-4-x4---|
E|------4----6----2-------------4----6----6------|

Repeat Chorus

Both Guitars End On:

e|------|
B|------|
G|-6~---|
D|-6~---|
A|-4~---|
E|------|

Hope this helps.Feel free to contact me if you need to ask any questions. 

Stef
__________________________________________________________________________________

| /   slide up
| \   slide down
| h   hammer-on
| p   pull-off
| ~   vibrato
| +   harmonic
| x   Mute note
| b   Bend
| pb  Pre-bend
| br  Bend release
| pbr Pre-bend release
| brb Bend release bend

************************************
Suggest correction
Give kudos to tab author, rate the tab!
1 2 3 4 5
comments
print report bad tab
guest
You may want to rate the tab now too:
select rating
Wanna post a correction for this tab? Suggest correction