Oops, an error
Loading. Please wait.

Run Dont Walk Tab

2,508 views 1 this week
no commentswrite comment
1 2 3 4 5
please rate
add to favorites
launch autoscroll
font size
0
reset
how to read this tab
guitar tuner
Tab Pro tools
  • play this tab
  • loop segment
  • change instrument
  • show fretboard
  • metronome
×
Best way to learn
"Run Dont Walk"
Autoscroll
slow
fast
+/-
esc
set tempo
stop
Difficulty
novice
-------------------------------------------------------------------------------
                             Run Dont Walk- Hey Monday
-------------------------------------------------------------------------------
Tabbed by:Aldwin :)
Email:aldwin_pagulayan@yahoo.com

Tuning:Standard

Intro:
[Guitar 1]
I think u use a phaser effect.....im not sure.
e|---------------------------------------------------------------------------|
B|--5------------------------------------------------------------------------|
G|--6--------9---------------------------------------------------------------|
D|--6---7----9---9-----------------------------------------------------------|
A|--4---7----7---9-----------------------------------------------------------|
E|------5--------7-----------------------------------------------------------|  x4

[Guitar 2]
Comes in after guitar 1 plays intro twice.
e|------x-x------x-x-x------x-x------x-x-x-----------------------------------|
B|------x-x------x-x-x------x-x------x-x-x-----------------------------------|
G|-9999-x-x-9999-x-x-x-9999-x-x-9999-x-x-x-----------------------------------|
D|------x-x------x-x-x------x-x------x-x-x-----------------------------------|
A|-7777-x-x-7777-x-x-x-7777-x-x-7777-x-x-x-----------------------------------|
E|------x-x------x-x-x------x-x------x-x-x-----------------------------------|

Intro 2:
[Guitar 1]
e|---------------------------------------------------------------------------|
B|-555555--------------------------------------------------------------------|
G|-666666--------999999------------------------------------------------------|
D|-666666-777777-999999-999999-----------------------------------------------|
A|-444444-777777-777777-999999-----------------------------------------------|
E|--------555555--------777777-----------------------------------------------|  x2

[Guitar 2]
e|---------------------------------------------------------------------------|
B|---------------------------------------------------------------------------|
G|-131313-111111-99-111111111111-131313-111111-9-888888----------------------|
D|---------------------------------------------------------------------------|
A|-111111-9-9-9--77-9-9-9-9-9-9--111111-9-9-9--7-666666----------------------|
E|---------------------------------------------------------------------------|  x2


comments
We did not receive enough feedback on this tab! Please rate:
print report bad tab
1 2 3 4 5
I want to post or [tab]
guest
You may want to rate the tab now too:
select rating
Please do not post tabs as comments. Select "correction" instead!