Oops, an error
Loading. Please wait.

Set Off Chords

10,251 views 9 this week
1 commentread comment
1 2 3 4 5
excellent!
x 5
add to favorites
launch autoscroll
font size
0
reset
transpose
0
reset
simplify chords
display chords
guitar tuner
Autoscroll
slow
fast
+/-
esc
set tempo
stop
Help us to improve Ultimate-Guitar.com Take our survey!
×
Hey Monday
Set It Off
Hold On Tight
2008 Fueled By Rammen Records
Submitted by: paramore_fans@yahoo.com

Key: Eb

Tuning: Standard EADGBe

Chords used:
Eb -    x68886
Bb/D -  x587xx
Cm -    x35543
G# -    466544
Bb -    x13331


Intro: Cm-Gm-G#-Bb-Eb--Bb--


Verse 1:
Eb
In the dark it's 
G#              Eb     Bb/D
getting hard to breathe
Eb
Suffocating 
G#
something's wrong
  Eb           Bb/D
I feel so incomplete
      Eb
They stop and stare
    G#
And try to drag us
Eb  Bb/D Eb
down     Light 
         G#
the fuse Flip
the switch
Eb             Bb/D
Baby hold your ground


Refrain:
        Bb
You and me
           Cm
They wanna break us
               Bb (hold)
Let's shake it up
Cm
  Cause they will
Bb
never take us


Chorus 1:
Eb              G#
Set off all the fires
Eb            Bb/D
Set off your alarms
  Cm                   G#
I don't care what they say
Cause they don't 
Eb          Bb
know who we are
Eb              G#
Set off all the fires
Eb            Bb/D
Set off your alarms
         Cm
They can give 
            G#
us all they got
             Eb  Bb
You're all I want


Verse 2:
Eb
All their fears
G#
Watch them all come
Eb  Bb/D Eb
true     All 
their words
  G#
I Wrote so flirt and
Eb
tell us what to
Bb/D Eb
do   Hit and run
        G#
There's nothing 
        Eb  Bb/D
left to lose
  Eb
I Break their 
      G#
hole slip away
   Eb          Bb/D
Forever me and you


(Repeat Refrain)
(Repeat Chorus 1)


Bridge:
G#
  Let's blind their eyes
Bb
  And wave goodbye
Cm                 G# Bb
  We start the fire


Interlude: Cm-Gm-G#-Bb-Eb--Bb-- x2


Chorus 2:
Eb              G#
Set off all the fires
Eb            Bb/D
Set off your alarms
  Cm                   G#
I don't care what they say
Cause they don't 
Eb          Bb
know who we are
chordless
Set off all the fires
Set off your alarms
I don't care what they say
Cause they don't 
know who we are


Chorus 3:
Eb              G#
Set off all the fires
Eb            Bb/D
Set off your alarms
         Cm
They can give 
            G#
us all they got
             Eb  Bb
You're all I want
             Eb(hold)
You're all I want
Suggest correction
comments
print report bad tab
1 comment total.
0 reply
Ash_Lawrence 30 wrote on March 23 2009, 08:18 am

Intro (0:03, 2:18)

E|--3-3--------3-3--------4-4--------6-6------------
B|--4-4--8888--3-3--4464--4-4--8888--6-6--9999------
G|--5-5--5555--3-3--5555--5-5--5555--7-7--8888------
D|--5-5--------5-5--------6-6--------8-8------------
A|--3-3--------5-5--------6-6--------8-8------------
E|-------------3-3--------4-4--------6-6------------

E|--------------------------------------------------
B|--8-8-8-8-8-8-8-9-6-6-6-6-6-6-6-6-----------------
G|---8-8-8-8-8-8-8---8-8-8-8-8-8-8-8----------------
D|--------------------------------------------------
A|--------------------------------------------------
E|--------------------------------------------------

Verse (0:25), (1:22)

E|--------------------------------------------------
B|--------6--------8--------6------9-9--------------
G|--88-8-8-8--8-8-8-8--8-8-8-8--8-8-8-8-------------
D|--------------------------------------------------
A|--------------------------------------------------
E|--------------------------------------------------

guest
You may want to rate the tab now too:
select rating
Please do not post tabs as comments. Select "correction" instead!