Oops, an error
Loading. Please wait.

Set Off Tab

1,788 views 1 this week
1 commentread comment
1 2 3 4 5
x 4
add to favorites
launch autoscroll
font size
0
reset
how to read this tab
guitar tuner
Autoscroll
slow
fast
+/-
esc
set tempo
stop
Help us to improve Ultimate-Guitar.com Take our survey!
×
Difficulty
Tuning
novice
D# G# C# F# A# D#
Song - Set Off
Artist - Hey Monday
Album - Hold On Tight

Didn't see a tab for this so thought I'd try and make one

Tuning - E♭ A♭ D♭ G♭ B♭ E♭ (Half step down from standard)

Intro:
|-------------------------------------------------------------|
|------9-9-9-9----------------------9-9-9-9-------10-10-10-10-|
|------9-9-9-9-------9-9-11-9-------9-9-9-9-------9--9--9--9--|
|-6-6----------------9-9-9--9---------------------------------|
|-4-4-----------6-6------------7-7-----------9-9--------------|
|---------------4-4------------5-5-----------7-7--------------|
(Could be two guitars, but those are the notes)

Guitar 1:
|------------------------------------------------------------------|
|-9---9---9---9---9---9---9---10---7---7---7---7---7---7---7---9---|
|---9---9---9---9---9---9---9----9---9---9---9---9---9---9---9---9-|
|------------------------------------------------------------------|
|------------------------------------------------------------------|
|------------------------------------------------------------------|

Guitar 2:
|--------------|
|--------------|
|--------------|
|--------------|
|-2------9-----|
|-0(x8)--7(x8)-|

Verse:
(I can hear what sounds like a guitar in the background of
this part but it's faint enough to where I can't tell what
it is)
|---------------------------------------------------------|
|---------------------------------------------------------|
|---------------------------------------------------------|  (x4)
|-9-9-9-9-9-9-9---------------9-9-9-9-9-9-9-9-9-9-9-9-9-9-|
|-7-7-7-7-7-7-7-7-7-7-7-7-7-7-7-7-7-7-7-7-7-6-6-6-6-6-6-6-|
|---------------5-5-5-5-5-5-5-----------------------------|
    . . . . . .   . . . . . .   . . . . . .   . .   . .


Pre-Chorus:
|-----------------------|
|-----------------------|
|-----------------------|
|-4~~~~-6~~~~~-4--------|
|-2~~~~-4~~~~~-2(xalot)-|
|-----------------------|

|----------------|
|----------------|
|----------------|
|-6-6-6--4-4-4-4-|
|-4-4-4--2-2-2-2-|
|----------------|

Chorus:
|----------------------------------------------------------|
|----------------------------------------------------------|
|----------------------------------------------------------| (x2)
|-9--------------9------9------6---------------------------|
|-7(x8)---7------7(x8)--6(x8)--4(x8)--7------2------9------|
|---------5(x8)-----------------------5(x8)--0(x8)--7(x8)--|

Repeat verse
Repeat Pre-chorus/Chorus

Bridge:
(Not positive about this, but this is what I do)
|---------------------------------------------------------|
|---------------------------------------------------------|
|---------------------------------------------------------|
|---------------------------------------------------------|
|-7-7---7-7-7--7-7-7--7-7-7--7/9-9---9-9-9--9-9-9--9-9-9--|
|-5-5---5-5-5--5-5-5--5-5-5--5/7-7---7-7-7--7-7-7--7-7-7--|

|---------------------------------------|
|---------------------------------------|
|---------------------------------------|
|-2-2---2-2-2--2-2-2--2-2-2--2/11-------|
|-4-4---4-4-4--4-4-4--4-4-4--4/9(x16)---|
|---------------------------------------|

Repeat intro (x2)
End second time on:
|-------|
|-------|
|--9~~--|
|--9~~--|
|--7~~--|
|-------|

After acoustic and drum parts repeat chorus and end on
|-------|
|-------|
|--9~~--|
|--9~~--|
|--7~~--|
|-------|

or
|-------|
|-------|
|-------|
|--2~~--|
|--2~~--|
|--0~~--|

It's probably not perfect but it sounds good
and should be close. Corrections are welcome though.
Suggest correction
comments
print report bad tab
1 comment total.
0 reply
blackoppsm 10 Jul 24, 2010 04:01 PM

|---------------------------------------|
|---------------------------------------|
|---------------------------------------|
|-2-2---2-2-2--2-2-2--2-2-2--2/11-------|
|-4-4---4-4-4--4-4-4--4-4-4--4/9(x16)---|
|---------------------------------------|

should be

|---------------------------------------|
|---------------------------------------|
|---------------------------------------|
|-6-6---6-6-6--6-6-6--6-6-6--6/11-------|
|-4-4---4-4-4--4-4-4--4-4-4--4/9(x16)---|
|---------------------------------------|

guest
You may want to rate the tab now too:
select rating
Wanna post a correction for this tab? Suggest correction