Oops, an error
Loading. Please wait.

Set Off Bass Tab

version 2
version 2

Whole song

660 views 1 this week
no commentswrite comment
1 2 3 4 5
3 more votes to show rating
add to favorites
launch autoscroll
font size
0
reset
guitar tuner
Autoscroll
slow
fast
+/-
esc
set tempo
stop
Help us to improve Ultimate-Guitar.com Take our survey!
×
Set Off
by Hey Monday

Intro
G|--------|--------|--------|--------|
D|--------|--------|--------|--------|
A|--------|--------|--------|--------|
E|8-8-----|3-3-----|4-4-----|6-6-----|

G|--------|--------|--------|--------|
D|--------|--------|--------|--------|
A|6-6-6-6-|6-6-6-6-|--------|--------|
E|--------|--------|6-6-6-6-|6-6-6-6-|

Verse x4
G|--------|--------|--------|--------|
D|--------|--------|--------|--------|
A|66666666|--------|66666666|55555555|
E|--------|44444444|--------|--------|

Pre-Chorus
G|--------|--------|--------|--------|
D|--------|--------|--------|--------|
A|--------|--------|--------|--------|
E|6-------|--------|8-------|--------|

G|--------|--------|--------|--------|
D|--------|--------|--------|--------|
A|--------|--------|--------|--------|
E|6-------|--------|--8-8-8-|6-6-6-6-|

Chorus x2
G|--------|--------|--------|--------|
D|--------|--------|--------|--------|
A|66666666|--------|66666666|55555555|
E|--------|44444444|--------|--------|

G|--------|--------|--------|--------|
D|--------|--------|--------|--------|
A|333333--|--------|66666666|--------|
E|------66|44444444|--------|66666666|

Verse x4

Pre-chorus

Chorus x2

Bridge
G|--------|--------|--------|--------|
D|--------|--------|--------|--------|
A|--------|--------|--------|--------|
E|44-444-4|44-444-4|66-666-6|66-666-6|

G|--------|--------|--------|--------|
D|--------|--------|--------|--------|
A|--------|--------|--------|--------|
E|88-888-8|88-8886-|44444444|66666666|

Instrumental
G|--------|--------|--------|--------|
D|--------|--------|--------|--------|
A|--------|--------|--------|--------|
E|8-8-----|3-3-----|4-4-----|6-6-----|

G|--------|--------|--------|--------|
D|--------|--------|--------|--------|
A|6-6-6-6-|6-6-6-6-|--------|--------|
E|--------|--------|6-6-6-6-|6-6-6-6-|

G|--------|--------|--------|--------|
D|--------|--------|--------|--------|
A|--------|--------|--------|--------|
E|8-8-----|3-3-----|4-4-----|6-6-----|

G|--------|--------|--------|--------|
D|--------|--------|--------|--------|
A|6-6-6-6-|6-6-6-6-|--------|--------|
E|--------|--------|6-6-6-6-|6-6-6-6-|


Chorus x3 (There is no bass in the first two of these choruses, so really, you only play 
last one)

Ending
G|--------|--------|
D|--------|--------|
A|6-------|--------|
E|--------|--------|
Suggest correction
Give kudos to tab author, rate the tab!
1 2 3 4 5
comments
print report bad tab
guest
You may want to rate the tab now too:
select rating
Wanna post a correction for this tab? Suggest correction