Oops, an error
Loading. Please wait.

Where Is My Head Chords

4,047 views 3 this week
no commentswrite comment
1 2 3 4 5
please rate
add to favorites
launch autoscroll
font size
0
reset
transpose
0
reset
display chords
guitar tuner
Autoscroll
slow
fast
+/-
esc
set tempo
stop
Help us to improve Ultimate-Guitar.com Take our survey!
×
Contributor
Difficulty
simonns 1,559
novice
Band : Hey Monday
Song : Where is my Head
Album : Beneath it All
Year : 2010

Chords Used :
C#m : x46654
B : x24442
A : x02220
E : 022100
F#m : 244222

VERSE 1 :

   C#m             B               A               E
e|---------------------0-------0-------0-------0-------0-----0--------------|
B|-----5-------5-----4---4---4---4---2---2---2---2---0---0-----0------------|
G|---6---6---6---6-4-------4-------2-------2-------1-------1-----1----------|
D|-6-------6----------------------------------------------------------------|
A|--------------------------------------------------------------------------|
E|--------------------------------------------------------------------------|
   C#m             B               E
e|---------------------0-------0---------------------------2-0--------------|
B|-----5-------5-----4---4---4---4-----0-------0-------0-------0------------|
G|---6---6---6---6-4-------4---------1---1-------1---1-----------1----------|
D|-6-------6-----------------------2---------2-----2-----2------------------|
A|--------------------------------------------------------------------------|
E|--------------------------------------------------------------------------|

C#m         B                A                 E
   Today I told myself that I would control myself 
C#m                  B                E
   But my heart and zipper seems to disagree 
C#m                 B    
   Where is this coming from? 
     A        E
Progressively sinking deep 
C#m             B                     A        E
   Bet my old private school ain't proud of me 

CHORUS :
F#m            C#m
You've got me spinning like a DJ 
B
Don't care what they say 
A
Every minute, every day 
F#m
I'm waiting for the moment 
C#m
Don't know who this girl is 
B
But she wants to make a mess 
A
Don't leave till you're finished 
F#m                        A   E
Now we're on to something golden 
F#m
Where is my head? 
F#m
Where is my head? 
A       E   
I want it 
F#m
Where is my head? 
F#m
Where is my head? 

VERSE 2 :
C#m            B                     A         E
   It seems I lost my mind back when we first met 
C#m              B              E
   Right at that second, everything had changed 
C#m            B            A                E
   I might be modest on the outside, looking in 
C#m                    B              E
   But your mouth and body's got the best of me 

CHORUS :
F#m            C#m
You've got me spinning like a DJ 
B
Don't care what they say 
A
Every minute, every day 
F#m
I'm waiting for the moment 
C#m
Don't know who this girl is 
B
But she wants to make a mess 
A
Don't leave till you're finished 
F#m                        A   E
Now we're on to something golden 
F#m
Where is my head? 
F#m
Where is my head? 
A       E   
I want it 
F#m
Where is my head? 
F#m
Where is my head? 

SOLO :
A  E
A F#m
A  E  B

BRIDGE :
A              E
This is just crazy 
B
It's so unlike me 
A             E
Obsessing over you 
B (hold)
Is making me thirsty 
F#m      C#m B
You've got me

CHORUS : 
        A     C#m (hold)
You've got me spinning like a DJ 
B
Don't care what they say 
A
Every minute, every day 
F#m
I'm waiting for the moment 
C#m
Don't know who this girl is 
B
But she wants to make a mess 
A
Don't leave till you're finished 
F#m                        A   E
Now we're on to something golden 
F#m
Where is my head? 
F#m
Where is my head? 
A       E   
I want it 
F#m
Where is my head? 
F#m           C#m
Where is my head? 
comments
We did not receive enough feedback on this tab! Please rate:
print report bad tab
1 2 3 4 5
I want to post or [tab]
guest
You may want to rate the tab now too:
select rating
Please do not post tabs as comments. Select "correction" instead!