Oops, an error
Loading. Please wait.

Wish You Were Here Bass Tab

version 1
version 1

Whole song

Interactive

262 views 1 this week
no commentswrite comment
1 2 3 4 5
please rate
add to favorites
launch autoscroll
font size
0
reset
guitar tuner
Autoscroll
slow
fast
+/-
esc
set tempo
stop
Help us to improve Ultimate-Guitar.com Take our survey!
×
Author
Tuning
D A D G B E
0:08
G|-----------------------------------------------------------------------|
D|-----------------------------------------------------------------------|
A|-------------------------1---------------------------------------------|
D|-5-5-5-5-5-1---3---3-3-3---3-1-3-5-5-5-5-5-3---1---1-1-1-/-13-13-13-13-|

0:16
G|---------------------------------------------------------------------|
D|o-----------------3-3-3-3-3-3-3-3-5-5-5-5-5-5-5-5-------------------o|
A|o-1-1-1-1-1-1-1-1---------------------------------6-6-6-6-6-6-6-6-6-o|
D|---------------------------------------------------------------------|

0:32
G|---------------------------------------------------|
D|-----------------3-3-3-3-5-5-3-3-------------------|
A|-5-5-5-5-6-6-6-6-----------------5-5-5-5-6-6-6-3---|
D|---------------------------------------------------|

0:38
G|-----------------------------------------------------------------|
D|-----------------------------------------------------------------|
A|---------------------------------1-1-1-1-1-1-1-1-----------------|
D|-5-5-5-5-5-5-5-5-1-1-1-1-1-1-1-1-----------------3-3-3-3-3-3-3-3-|

0:46
G|-------------------------------------------------------------------|
D|-------------------------------------------------------------------|
A|-----------------1-1-1-1-1-1-1-1-----------------/-8-8-8-8-8-8-8-8-|
D|-1-1-1-1-1-1-1-1-----------------3-3-3-3-3-3-3-3-------------------|

0:55
G|-------------------------------------------------|
D|---------------------------1---1-----------------|
A|-------------------------------------------------|
D|-5-5-5-5-3-3-3-3-1-1-1-1-1---1---5-5-5-5-3-3-3-3-|

G|-----------------------------------------------------------------------|
D|-----------------------------------------------------------------------|
A|-------------------------1---------------------------------------------|
D|-5-5-5-5-5-1---3---3-3-3---3-1-3-5-5-5-5-5-3---1---1-1-1-/-13-13-13-13-|

1:11
G|---------------------------------------------------------------------|
D|o-----------------3-3-3-3-3-3-3-3-5-5-5-5-5-5-5-5-------------------o|
A|o-1-1-1-1-1-1-1-1---------------------------------6-6-6-6-6-6-6-6-6-o|
D|---------------------------------------------------------------------|

1:28
G|---------------------------------------------------------------------|
D|-----------------3-3-3-3-5-5-3-3-------------------------------------|
A|-5-5-5-5-6-6-6-6-----------------5-5-5-5-6-6-6-3---------------8-\-5-|
D|---------------------------------------------------------------------|

1:36
G|-------------------------------------------------------------------|
D|-----------------------------------------------1-\-3-3-3-3-8-7-3-0-|
A|---------------------------------1-1-1-1-1-1-1---------------------|
D|-5-5-5-5-5-5-5-5-1-1-1-1-1-1-1-1-----------------------------------|

1:45
G|---------------------------------------------------------------------|
D|-------------------------------------------------7-7-7-8-10-10-12-12-|
A|-----------------1-1-1-1-1-1-1-1-------------------------------------|
D|-1-1-1-1-1-1-1-1-----------------3-3-3-3-3-3-3-3---------------------|

1:54
G|--------------------------------------------------|
D|--------------------------------------------------|
A|--------------------------------------------------|
D|-5-5-5-5-3-3-3-3-1-1-1-1-1-1-1-1-5-5-5-5-3-3-/-10-|

2:02
G|-----------------------------------------------------------------|
D|-----------------------------------------------------------8---8-|
A|-3-3-3-3-3-3-3-3-5-5-5-5-5-5-5-5-6-6-6-6-6-6-6-6-8-----8-----8---|
D|-----------------------------------------------------------------|

2:10
G|---------5-5-5-5---------7-7-7---------------------------------------------|
D|-------------------------------0-3-3-3-3-3-3-3-3-/-15-15-15-15-15-15-15----|
A|-3-3-3-3---------5-5-5-5------------------------------------------------12-|
D|---------------------------------------------------------------------------|

2:20
G|-----------------------------------------------------------------|
D|-----------------------------------------------------------------|
A|---------------------------------1-1-------------------------3/8-|
D|-5---------------1-------------------------------3-3-------------|

2:28
G|------------------------------------------------------10---10-10-10-10-|
D|---------------------0-0-3-3-8-8---------8-7-----10--------------------|
A|-----------------1-1-------------8-8-8-8-----8-8----8----8-------------|
D|-1-1-1-1-1-1-1-1-------------------------------------------------------|

2:36
G|-----------------------------------------------------------------|
D|---------------------------------------------0-1-3-3-3-3-3-5-3-0-|
A|-----------0-1-3-6-6-6-6-6-8-6-5-1-1-1-1-1-1---------------------|
D|-5-5-5-5-5-------------------------------------------------------|

2:45
G|-----------------------------------------------------------------|
D|-1-1-1-1-1-1-3-1-------------0-1-----------------7---7---7-8-7---|
A|-----------------1-1-1-1-1-3-----------------------8---8-------8-|
D|---------------------------------3-3-3-3-3-3-3-3-----------------|

G|-------------------------------------------------|
D|-------------------------------------------------|
A|-------------------------------------------------|
D|-5-5-5-5-3-3-3-3-1-1-1-1-1-1-1-1-5-5-5-5-3-3-3-3-|

G|---------------------------------------------------|
D|---------------------------------------------------|
A|-------------------------1-------------------------|
D|-5-5-5-5-5-1---3---3-3-3---3-1-3-5-5-5-5-5-3---1---|
Tabbed by Dave Vucko
Suggest correction
What's this?
You can suggest a correction to this tab. Community and Mods will review your correction and vote to approve or reject it.
comments
We did not receive enough feedback on this tab! Please rate:
print report bad tab
1 2 3 4 5
guest
You may want to rate the tab now too:
select rating
Please do not post tabs as comments. Select "correction" instead!