Oops, an error
Loading. Please wait.

Wondergirl Chords

version 1
version 1

Whole song

10,376 views 1 this week
3 commentsread comments
1 2 3 4 5
x 3
add to favorites
launch autoscroll
font size
0
reset
transpose
0
reset
display chords
guitar tuner
Autoscroll
slow
fast
+/-
esc
set tempo
stop
Help us to improve Ultimate-Guitar.com Take our survey!
×
Author
Difficulty
intermediate
    Bm               F#m             G                        G
E|---------------------------------------------------------------------|
B|-------3----------------3--------------------------------------------|
G|---------4----------------4------------------------------------------|
D|----4-----4---------4------4---------4-5-4-4---------4-5-4-4---------|
A|-2----------2--------------------------------------------------------|
E|----------------2--------------2---3-------------2-3-----------------|


Bm             F#               G
There I go, go at the speed of sound.
Bm            F#m                  G
I'm higher than a satellite and you're stuck on the ground.
Bm              F#m           G
Your cries for help out soften me.
          G        A           G                A
So don't expect to see, see me waiting here to be.

         Bm     G     D         A
Be your wonder girl, not gonna save you.
Bm      G   D          A
Wonder girl, go save yourself.
Bm  G             D            A
No way, won't go down in your flames.
         Bm     G     D         A
Because wonder girl won't save your life.
Bm G D               A
Oh, won't save your life.
Bm G D               A
Oh, won't save your life.

Bm F#m G G (3x)
There you go, go looking for a fight.
I got a heart of steel, you can't cut and bleed me dry.
My secrets you can never keep.
G A G A
So don't expect to see, see me waiting here to be.

Bm G D A (6x)
Be your wonder girl, not gonna save you.
Wonder girl, go save yourself.
No way, won't go down in your flames.
Because wonder girl won't save your life.

Bm 			G
I never thought it would end this way.
	D			A
But I can't compete with these addictions that you've made.
Bm				G		D	A
Now every touch becomes the enemy, and I will never be.

Bm G D A (10x)
Be your wonder girl, don't say you love me.
Wonder girl, when you hate yourself.
No way, won't go down in your flames.
Because wonder girl won't save your life.

Wonder girl, not gonna save you.
Wonder girl, go save yourself.
No way, won't go down in your flames.
Because wonder girl won't save your life.
Oh, won't save your life.
Oh, won't save your life, tonight.
Suggest correction
Give kudos to tab author, rate the tab!
1 2 3 4 5
comments
print report bad tab
3 comments total.
0 reply
TrisXD 62 Feb 15, 2011 03:51 AM

E|---------------------------------------------------------------------|
B|-------3----------------3---------------------------------
Sounds better when u play a (in order for intro) Bm, G, D
-----------|
G|---------4----------------4------------------------------------------|
D|----4-----4---------4------4---------4-5-4-4---------4-5-4-4---------|
A|-2----------2--------------------------------------------------------|
E|----------------3--------------2---3-------------2-3-----------------|

0 reply
TrisXD 62 Feb 15, 2011 03:53 AM

(correction) Sounds better when u play a (in order for intro) Bm, G, D
E|---------------------------------------------------------------------|
B|-------3----------------3---------------------------------
-----------|
G|---------4----------------4------------------------------------------|
D|----4-----4---------4------4---------4-5-4-4---------4-5-4-4---------|
A|-2----------2--------------------------------------------------------|
E|----------------3--------------2---3-------------2-3-----------------|

0 reply
TrisXD 62 Feb 15, 2011 03:55 AM

ugh... i can't it in proper, well anyway instead of doing a F#m Chord chape, do the G chord instead

guest
You may want to rate the tab now too:
select rating
Wanna post a correction for this tab? Suggest correction