Oops, an error
Loading. Please wait.

Wondergirl Tab

version 1
version 1

Whole song

3,972 views 3 this week
no commentswrite comment
1 2 3 4 5
please rate
add to favorites
launch autoscroll
font size
0
reset
how to read this tab
guitar tuner
Tab Pro tools
  • play this tab
  • loop segment
  • change instrument
  • show fretboard
  • metronome
×
Best way to learn
"Wondergirl"
Autoscroll
slow
fast
+/-
esc
set tempo
stop
Contributor
Difficulty
Tuning
novice
D A D G B E
This is my first tab and ill try my best to make it accurate.
I couldnt get mike's intro but i got this one instead. I have a vidoe up on youtube if it helps. 
http://www.youtube.com/watch?v=UxGpjIn-Vgo
It's rhythm guitar.

E|----------|
B|----------|
G|----------|    x2
D|-2~-6~-7~-|
A|-2~-6~-7~-|
D|-2~-6~-7~-|

E|--------------------------|
B|--------------------------|
G|-4-4-44-------7-7-77------|   x2
D|-4-4-44-5555--7-7-77-7777-|
A|-2-2-22-5555--5-5-55-7777-|
D|--------5555---------7777-|
      A A
E|----0-0----|
B|----2-2----|
G|----2-2----|
D|-55-2-2-22-| ONE TIME ONLY
A|-55-0-0-22-|
D|-55-x=x-22-|


E|--------------------------|
B|--------------------------|
G|-4-4-44-------7-7-77------|   x3
D|-4-4-44-5555--7-7-77-7777-|
A|-2-2-22-5555--5-5-55-7777-|
D|--------5555---------7777-|


E|--------------------|
B|--------------------|
G|-4-4-------7-7--7-7-|
D|-4-4--5-5--7-7--7-7-|x3
A|-2-2--5-5--5-5--5-5-|
D|------5-5-----------|


E|----------|
B|----------|
G|----------|    x2
D|-2~-6~-7~-|
A|-2~-6~-7~-|
D|-2~-6~-7~-|


E|--------------------------|
B|--------------------------|
G|-4-4-44-------7-7-77------|   x2
D|-4-4-44-5555--7-7-77-7777-|
A|-2-2-22-5555--5-5-55-7777-|
D|--------5555---------7777-|

        D D  A A
E|------2-2--0-0------|
B|------3-3--2-2------|
G|------2-2--2-2------| x1
D|-5-5--0-0--2-2--2-2-|
A|-5-5--x-x--0-0--2-2-|
D|-5-5--x-x--x-x--2-2-|


E|--------------------------|
B|--------------------------|
G|-4-4-44-------7-7-77------|   x1
D|-4-4-44-5555--7-7-77-7777-|
A|-2-2-22-5555--5-5-55-7777-|
D|--------5555---------7777-|


E|--------------------------------|-------------------------------------------|
B|--------------------------------|-------------------------------------------|
G|----------------------7---------|----------------------7--------------------|
D|-2-2-2-2-2/4-4/5-5----7-x8-7-x8-|-2-2-2-2-2/4-4/5-5----7-x2-7---------------|
A|-2-2-2-2-2/4-4/5-5-x8-5----4----|-2-2-2-2-2/4-4/5-5-x8-5----7-x10 or 12-----|
D|-2-2-2-2-2/4-4/5-5--------------|-2-2-2-2-2/4-4/5-5---------7---------------|


E|-------------------|
B|-------------------|
G|-4-4-------7-7-----|
D|-4-4--5-5--7-7-7-7-|
A|-2-2--5-5--5-5-7-7-|
D|------5-5------7-7-|

E|--------------------------|
B|--------------------------|
G|-4-4-44-------7-7-77------|   x3
D|-4-4-44-5555--7-7-77-7777-|
A|-2-2-22-5555--5-5-55-7777-|
D|--------5555---------7777-|


        D D  A A
E|------2-2--0-0------|
B|------3-3--2-2------|
G|------2-2--2-2------| x1
D|-5-5--0-0--2-2--2-2-|
A|-5-5--x-x--0-0--2-2-|
D|-5-5--x-x--x-x--2-2-|


E|--------------------------|
B|--------------------------|
G|-4-4-44-------7-7-77------|   x2
D|-4-4-44-5555--7-7-77-7777-|
A|-2-2-22-5555--5-5-55-7777-|
D|--------5555---------7777-|


E|--------------------------|
B|--------------------------|
G|-4-4-44------7---------4~-|
D|-4-4-44-5555-7-x2-7----4~-|
A|-2-2-22-5555-5----7-x2-2~-|
D|--------5555------7-------|


Enjoy!
comments
We did not receive enough feedback on this tab! Please rate:
print report bad tab
1 2 3 4 5
I want to post or [tab]
guest
You may want to rate the tab now too:
select rating
Please do not post tabs as comments. Select "correction" instead!