Oops, an error
Loading. Please wait.

Wondergirl Tab

version 2
version 2

Whole song

1,123 views 1 this week
no commentswrite comment
1 2 3 4 5
excellent!
x 1
add to favorites
launch autoscroll
font size
0
reset
how to read this tab
guitar tuner
Tab Pro tools
  • play this tab
  • loop segment
  • change instrument
  • show fretboard
  • metronome
Autoscroll
slow
fast
+/-
esc
set tempo
stop
Contributor
Difficulty
novice
Song: Wondergirl
Artist: Hey Monday
Album: Beneath It All

Standard Tuning (EADGBe)
I know the song really is in Drop D but you can also play it in Standard with a nice 
sound. Here is a link to another version for the tabbed out Power Chords for this song in 
Drop D if you wish to play it in that tuning: 
http://tabs.ultimate-guitar.com/h/hey_monday/wondergirl_tab.htm

The intro has been tabbed by watching the Live acoustic performance. Also this is my 2nd 
tab, I hope its a good one! =D Enjoy!

Intro: (Clean)
        Bm           G               D            D
E|-----------------------------------------------------------|
B|-------3------------3--------------------------------------|
G|---------4------------4------------------------------------|
D|----4-----4-----4-------4---------4--5--0-------4--5--0----|
A|-2-----------------------------5--------------5------------|
E|-------------3---------------------------------------------|

Verse:

E|---0------------------------|
B|---0------------------------|
G|---0------------------------|
D|---2------9-----------------|
A|---2------9-----------------|  x2
E|---0------7-----------------|
"So don't expect...to see...to see me waiting here to be.."
(if not the power chord then do an A chord for the 2nd chord)

Chorus:
E|--------------------------|
B|--------------------------|
G|---4-------7--------------|
D|---4----5--7--7-----------|
A|---2----5--5--7-----------|  x3
E|--------3-----5-----------|
"Be your wonder girl, not gonna save you..."

E|-----------------------------|
B|-----------------------------|
G|------------77xx-------------|
D|----55-xx---77xx-77xx---99---|
A|----55-xx---55xx-77xx---99---|  x1
E|----33-xx--------55xx---77---|
"No way, won't go down in your flames..."

E|---------------------------|
B|---------------------------|
G|----------7----------------|
D|----9--5--7--7-------------|
A|----9--5--5--7-------------|  x3
E|----7--3-----5-------------|
"Because wonder girl won't save your life."

E|---------------------------|
B|---------------------------|
G|------------77xx-----------|
D|----55-xx---77xx-77xx------|
A|----55-xx---55xx-77xx------|  x3
E|----33-xx--------55xx------|
"There you go, go looking for a fight"

Verse:

E|---0------------------------|
B|---0------------------------|
G|---0------------------------|
D|---2------9-----------------|
A|---2------9-----------------|  x2
E|---0------7-----------------|
"So don't expect...to see...to see me waiting here to be.."
(if not the power chord then do an A chord for the 2nd chord)

Chorus:

E|--------------------------|
B|--------------------------|
G|---4-------7--------------|
D|---4----5--7--7-----------|
A|---2----5--5--7-----------|  x3
E|--------3-----5-----------|
"Be your wonder girl, not gonna save you..."

Bridge:

E|---------------------------|
B|---------------------------|
G|--4-----7------------------|
D|--4--5--7--7---------------|
A|--2--5--5--7---------------|  x2
E|-----3-----5---------------|
"I never thought it would end this way..."

Outro:
E|-------------------------------|
B|-------------------------------|
G|--4~------7~-------------------|
D|--4~--5~--7~--7~---------------|
A|--2~--5~--5~--7~---------------|  x2
E|------3~------5~---------------|
"Be your wonder girl, don't say you love me.."

E|---------------------------|
B|---------------------------|
G|--4-----7------------------|
D|--4--5--7--7---------------|
A|--2--5--5--7---------------|  x2
E|-----3-----5---------------|
"No way, won't go down in your flames..."

Then that's all of it. I hope its accurate enough!
comments
We did not receive enough feedback on this tab! Please rate:
print report bad tab
1 2 3 4 5
I want to post or [tab]
guest
You may want to rate the tab now too:
select rating
Please do not post tabs as comments. Select "correction" instead!