Oops, an error
Loading. Please wait.

Wondergirl Tab

version 3
version 3

Whole song

676 views 1 this week
no commentswrite comment
1 2 3 4 5
please rate
add to favorites
launch autoscroll
font size
0
reset
how to read this tab
guitar tuner
Autoscroll
slow
fast
+/-
esc
set tempo
stop
Help us to improve Ultimate-Guitar.com Take our survey!
×
Author
Tuning
D A D G B E
Hey Monday
Wondergirl
Beneath It All

here's a guitar cover.
http://www.youtube.com/watch?v=_kSaRtwTKUc

Tuning: Drop D

Into
e|--------|------|------------|
B|-----3--|------|------------|
G|------4-|---7--|---0-0--0-0-|
D|--4-4---|--0-0-|--4-4--4-4--| 2x
A|-2-2----|------|-0----0-----|
D|--------|-5----|------------|

Verse 1
e|--------|------|------------|
B|-----3--|------|------------|
G|------4-|---7--|---0-0--0-0-|
D|--4-4---|--0-0-|--4-4--4-4--| 3x
A|-2-2----|------|-0----0-----|
D|--------|-5----|------------|

Pre-Chorus
e|------------------|
B|------------------|
G|------------------|
D|-2--5--7--2--5--9-|
A|-2--5--7--2--5--9-|
D|-2--5--7--2--5--9-|

Chorus
e|-------------|  |----2--------|  |------------|
B|-------------|  |----3--0-----|  |------------|
G|-4-----7-----|  |----2--2-----|  |-4-----7----|
D|-4--5--7--7--|2x|-5-----2--2--|1x|-4--5--7--7-|3x
A|-2--5--5--7--|  |-5--------2--|  |-2--5--5--7-|
D|----5-----7--|  |-5--------2--|  |----5-----7-|

Verse 2
e|------------|
B|------------|
G|-4----------|
D|-4--5--7--7-|3x
A|-2--5--7--7-|
D|----5--7--7-|

Pre-Chorus
e|------------------|
B|------------------|
G|------------------|
D|-2--5--7--2--5--9-|
A|-2--5--7--2--5--9-|
D|-2--5--7--2--5--9-|

Chorus
e|-------------|  |----2--------|  |------------|
B|-------------|  |----3--0-----|  |------------|
G|-4-----7-----|  |----2--2-----|  |-4-----7----|
D|-4--5--7--7--|2x|-5-----2--2--|1x|-4--5--7--7-|1x
A|-2--5--5--7--|  |-5--------2--|  |-2--5--5--7-|
D|----5-----7--|  |-5--------2--|  |----5-----7-|

Bridge
e|---------------------------|
B|---------------------------|
G|----------7----------------|
D|-2--4--5--7--7--2--4--5--7-|
A|-2--4--5--5--7--2--4--5--7-|
D|-2--4--5-----7--2--4--5--7-|


Chorus
e|-------------|  |----2--------|  |------------|
B|-------------|  |----3--0-----|  |------------|
G|-4-----7-----|  |----2--2-----|  |-4-----7----|
D|-4--5--7--7--|2x|-5-----2--2--|1x|-4--5--7--7-|1x
A|-2--5--5--7--|  |-5--------2--|  |-2--5--5--7-|
D|----5-----7--|  |-5--------2--|  |----5-----7-|

e|-------------|  |----2--------|  |------------|
B|-------------|  |----3--0-----|  |------------|
G|-4-----7-----|  |----2--2-----|  |-4-----7----|
D|-4--5--7--7--|2x|-5-----2--2--|1x|-4--5--7--7-|3x
A|-2--5--5--7--|  |-5--------2--|  |-2--5--5--7-|
D|----5-----7--|  |-5--------2--|  |----5-----7-|

Outro
e|---|
B|---|
G|-4-|
D|-4-|
A|-2-|
D|---|
Suggest correction
What's this?
You can suggest a correction to this tab. Community and Mods will review your correction and vote to approve or reject it.
comments
We did not receive enough feedback on this tab! Please rate:
print report bad tab
1 2 3 4 5
guest
You may want to rate the tab now too:
select rating
Please do not post tabs as comments. Select "correction" instead!