Oops, an error
Loading. Please wait.

Liar Tab

2,136 views 1 this week
no commentswrite comment
1 2 3 4 5
1 last vote to show rating
add to favorites
launch autoscroll
font size
0
reset
how to read this tab
guitar tuner
Autoscroll
slow
fast
+/-
esc
set tempo
stop
Help us to improve Ultimate-Guitar.com Take our survey!
×
Author
Tabbed by: MajesticMoose
Email: majesticmoose0@gmail.com

Hey Ocean's official site: http://myspace.com/heyocean

Tuning:EADGBe

-|-------2-------2-|-       -|-----------------|-
-|-----0---0---0---|-       -|-------2-------2-|-
-|---2-------2-----|-    x4 -|-----0---0---0---|-    x2
-|-0---------------|-       -|---2-------2-----|-
-|-----------------|-       -|-0---------------|-
-|-----------------|-       -|-----------------|-

I feel like I don't deserve the love that I receive,
'cause I'm a liar.

-|-------2-------2-|-       -|-----------------|-
-|-----0---0---0---|-       -|-------2-------2-|-
-|---2-------2-----|-    x4 -|-----0---0---0---|-    x4
-|-0---------------|-       -|---2-------2-----|-
-|-----------------|-       -|-0---------------|-
-|-----------------|-       -|-----------------|-

Telling tales disguise how stale the truth is,
but you use this gift denial and you do, yeah you do

-|-----------------|-----------------|-------2-------2-|-------2-------2-|-
-|-------3-------3-|-------0-------0-|-----0---0---0---|-----0---0---0---|-
-|-----4---4---4---|-----0---0---0---|---2-------2-----|---2-------2-----|-
-|---4-------4-----|---0-------0-----|-0---------------|-0---------------|-
-|-2---------------|-----------------|-----------------|-----------------|-
-|-----------------|-3---------------|-----------------|-----------------|-

It's easier to be somebody else

-|-----------------|-----------------|-----------------|-----------------|-
-|-------3-------3-|-------0-------0-|-------2-------2-|-----------------|-
-|-----4---4---4---|-----0---0---0---|-----0---0---0---|-----------------|-
-|---4-------4-----|---0-------0-----|---2-------2-----|-2---------------|-
-|-2---------------|-----------------|-0---------------|-----------------|-
-|-----------------|-3---------------|-----------------|-----------------|-

When you hardly even know yourself.
Ooh ooh ooh

-|-------2-------2-|-
-|-----0---0---0---|-
-|---2-------2-----|-    x4
-|-0---------------|-
-|-----------------|-
-|-----------------|-

-|-------2-------2-|-       -|-----------------|-
-|-----0---0---0---|-       -|-------2-------2-|-
-|---2-------2-----|-    x4 -|-----0---0---0---|-    x2
-|-0---------------|-       -|---2-------2-----|-
-|-----------------|-       -|-0---------------|-
-|-----------------|-       -|-----------------|-

I feel like I don't live up to all that I believe and I admire

-|-------2-------2-|-       -|-----------------|-
-|-----0---0---0---|-       -|-------2-------2-|-
-|---2-------2-----|-    x4 -|-----0---0---0---|-    x4
-|-0---------------|-       -|---2-------2-----|-
-|-----------------|-       -|-0---------------|-
-|-----------------|-       -|-----------------|-

Every time I try this feeling builds and it's a guilt that I require,
and I do, yeah I do

-|-----------------|-----------------|-------2-------2-|-------2-------2-|-
-|-------3-------3-|-------0-------0-|-----0---0---0---|-----0---0---0---|-
-|-----4---4---4---|-----0---0---0---|---2-------2-----|---2-------2-----|-    x2
-|---4-------4-----|---0-------0-----|-0---------------|-0---------------|-
-|-2---------------|-----------------|-----------------|-----------------|-
-|-----------------|-3---------------|-----------------|-----------------|-

It's easier to be somebody else
When you hardly even know yourself.

-|-----------------|-----------------|-------2-------2-|-------2-------2-|-
-|-------3-------3-|-------0-------0-|-----0---0---0---|-----0---0---0---|-
-|-----4---4---4---|-----0---0---0---|---2-------2-----|---2-------2-----|-
-|---4-------4-----|---0-------0-----|-0---------------|-0---------------|-
-|-2---------------|-----------------|-----------------|-----------------|-
-|-----------------|-3---------------|-----------------|-----------------|-

It's easier to be somebody else

-|-----------------|-----------------|-----------------|-----------------|-
-|-------3-------3-|-------0-------0-|-------2-------2-|-------2-------2-|-
-|-----4---4---4---|-----0---0---0---|-----0---0---0---|-----0---0---0---|-
-|---4-------4-----|---0-------0-----|---2-------2-----|---2-------2-----|-
-|-2---------------|-----------------|-0---------------|-0---------------|-
-|-----------------|-3---------------|-----------------|-----------------|-

When you hardly even know yourself.
Ooh ooh ooh

-|-------2-------2-|-------3-------3-|-------5-------5-|-------7-------7-|-
-|-----0---0---0---|-----0---0---0---|-----0---0---0---|-----0---0---0---|-
-|---2-------2-----|---4-------4-----|---6-------6-----|---7-------7-----|-
-|-0---------------|-0---------------|-0---------------|-0---------------|-
-|-----------------|-----------------|-----------------|-----------------|-
-|-----------------|-----------------|-----------------|-----------------|-

-|-------5-------5-|-------5-------5-|-------3-------3-|-------3-------3-|-
-|-----0---0---0---|-----0---0---0---|-----0---0---0---|-----0---0---0---|-
-|---5-------5-----|---5-------5-----|---4-------4-----|---4-------4-----|-
-|-0---------------|-0---------------|-0---------------|-0---------------|-
-|-----------------|-----------------|-----------------|-----------------|-
-|-----------------|-----------------|-----------------|-----------------|-

Ooh ooh ooh

-|-------2-------2-|-------3-------3-|-------5-------5-|-------7-------7-|-
-|-----0---0---0---|-----0---0---0---|-----0---0---0---|-----0---0---0---|-
-|---2-------2-----|---4-------4-----|---6-------6-----|---7-------7-----|-
-|-0---------------|-0---------------|-0---------------|-0---------------|-
-|-----------------|-----------------|-----------------|-----------------|-
-|-----------------|-----------------|-----------------|-----------------|-

I feel like I don't deserve the love that I receive
I feel like I don't live up to all that I believe

-|-------5-------5-|-------5-------5-|-------3-------3-|-------3-------3-|-2---------------|-
-|-----0---0---0---|-----0---0---0---|-----0---0---0---|-----0---0---0---|-0---------------|-
-|---5-------5-----|---5-------5-----|---4-------4-----|---4-------4-----|-2---------------|-
-|-0---------------|-0---------------|-0---------------|-0---------------|-0---------------|-
-|-----------------|-----------------|-----------------|-----------------|-----------------|-
-|-----------------|-----------------|-----------------|-----------------|-----------------|-

Ooh ooh ooh
Ooh ooh ooh

Enjoy!
Suggest correction
Give kudos to tab author, rate the tab!
1 2 3 4 5
comments
print report bad tab
guest
You may want to rate the tab now too:
select rating
Wanna post a correction for this tab? Suggest correction