Oops, an error
Loading. Please wait.

Holy Shit What A Relief Tab

1,955 views 6 this week
no commentswrite comment
1 2 3 4 5
please rate
add to favorites
launch autoscroll
font size
0
reset
how to read this tab
guitar tuner
Autoscroll
slow
fast
+/-
esc
set tempo
stop
Help us to improve Ultimate-Guitar.com Take our survey!
×
Difficulty
novice
Am   D


Lead (Using tremolo bar)


    Am             D           Am            D

E|--5--5--5--------5------5----5---5---------5-----------------|   And so
B|--5--5-----5-----7-----------5------5------7--8p7---7--------|   on...
G|--5--------------7---7-------5-------------7--------7--------|
D|--7--------------7-----------7-------------7--------7--------|
A|--7--------------5-----------7-------------5-----------------|
E|--5--------------------------5-------------------------------|

Am
holy shit
         D
what a relief





  Em                             Am                              C
i pulled myself apart - couldn't breathe - tore my hair - bit my skin
  Em                                Am                            C
i thought of all the dark - all the ash - all the blood - all the grief
  Em                            Am                  C
i told myself look up - told myself look up and believe
    Em                      Am                   C
and now this peace - like a blanket - enveloping me.



    Am
and holy shit
         D
what a relief
    Am
the worst has come
              D
and turned to leave
    C
and holy shit
         G
what a relief!
C                            G
all that weight falling from me
    C                       G
and all that breath finally free


Guitar Outro
                                              
E|-----------------|
B|-----------------|
G|-----------------|
D|-----------------|
A|-----------------|
E|--3-3-3-3-3-3-3--|


E|- part a ----------------------|------------------------------------|
B|-------------------------------|------------------------------------|
G|-------------------------------|------------------------------------|
D|-------------------------------|------------------------------------|
A|-----2-----0--2-----2-----0--2-|-----2-----0--2-----2-----0--2------|
E|--3-----3--------3-----3-------|-3------3--------3-----3------------|


E|- part b ----------------------|---------------------------------|
B|-------------------------------|---------------------------------|
G|-------------------------------|---------------------------------|
D|-------------------------------|---------------------------------|
A|-----2-----0--2-----2-----0--2-|----2-----0--2-----2-----0--2----|
E|--0-----0--------0-----0-------|-0-----0--------0-----0----------|

repeat a and b and then:

E| part c ----------------------------|
B|-----------0------0------0-------0--|
G|---------------2--------------2-----|
D|------------------------------------|
A|------3-3----3-------3------3-------|
E|------------------------------------|

A and B reapeat again (Slight variation at the end of each bar)  
And then C repeats normally

then:

Lead                

E|------3///---5///---7///---10///---8///---10///---12///---14///-------|
B|----------------------------------------------------------------------|
G|----------------------------------------------------------------------|
D|----------------------------------------------------------------------|
A|----------------------------------------------------------------------|
E|----------------------------------------------------------------------|

Rhythm

E|-----------------------------|
B|---------8///----------------|
G|---------7///----------------|
D|---------5///----------------|
A|-----------------------------|
E|-----------------------------|



Repeat A and B

And finish by strumming the bottom half of G and Em ending in G 
Suggest correction
Give kudos to tab author, rate the tab!
1 2 3 4 5
comments
print report bad tab
guest
You may want to rate the tab now too:
select rating
Please do not post tabs as comments. Select "correction" instead!