Oops, an error
Loading. Please wait.

Red Song tab

version 1
version 1

Whole song

14,725 views 3 this week
3 commentsread comments
1 2 3 4 5
x 5
add to favorites
×
Save as Personal and add changes to this tab that will be seen only by you. Learn more ›
×
You can save this tab as Personal to edit and correct it or add notes. All changes will be seen only by you. Learn more »
launch autoscroll
font size
0
reset
how to read this tab
guitar tuner
edit
Autoscroll
slow
fast
+/-
esc
set tempo
stop
Author
-------------------------------------------------------------------------------
                            Red Song - Hey Rosetta!
-------------------------------------------------------------------------------
Tabbed by: Evan Swain


[Intro] 

(Play once without lyrics repeat for verse 1, 2, 3, 4                                

[Verse 1]

            In the white I wake up           

     Dmin               Em/B            Am                        G
e|--------1-----------------3-----------------0-------------------------------------------|
B|----3-----3---------5--------5--------1--------1--------1----------3----3---------------|
G|------2------2s4-------4--------4--------2----------2-----2p0---------------------------|
D|--0---------------0---------------------------------------------------0-----------------|
A|------------------------------------0-----------0---------------------------------------|
E|----------------------------------------------------------------3-----------------------|
-
            In the white I die

     Dmin            Em/B             Am                            G
e|--------1-----------------3-----------------0-------------------------------------------|
B|----3-----3---------5--------5--------1--------1------1----1------1---0-----------------|
G|------2------2s4-------4--------4--------2----------------------------------------------|
D|--0---------------0-------------------------------0h2---------0h2--------0--------------|
A|------------------------------------0--------------------0------------------------------|
E|--------------------------------------------------------------------3-------------------|


           
           Somewhere in the red, I see your eyes

     Dmin            Em/B              Am             G                
e|--------1-----------------3-----------------0---------------3---------------------------|
B|----3-----3---------5--------5--------1--------1--0----3-------3------------------------|
G|------2------2s4-------4--------4--------2----------------------------------------------|
D|--0--------0-----0---------------------------------------0-------0----------------------|
A|------------------------------------0-----------0---------------------------------------|
E|----------------------------------------------------3----------------2------------------|
 

     D/F#                               Fmaj7/C
e|-----------2-------------------------------1--------------------------------------------|
B|-----3--------3--------3-----3-------1--------1-------1--------3------------------------|
G|---------------------2-----2------------2----------2--------2---------------------------|
D|----------------------------------3-------------3--------3------------------------------|
A|----------------------------------------------------------------------------------------|
E|--2-----2---------2------2--------------------------------------------------------------|



[Verse 2]

In the green I'm out walking                   

and in the green I live

Somewhere in the red, I have your lips


[Bridge]

(Basically the same picking pattern)

Em  Am  F  C                              

Em              Am      
I dreamed of eyes    
                         
F               C
I dreamed of ears


[Verse 3]              
                    
And in the blue I'm rising like an ocean       

And in the blue it's down I sink

Somewhere in the red, I taste your skin


[Bridge 2]

Am                  C         F 
The girls they loved his face                  
Am                         C         G     F
Cut their fingers and they could not look away
Am                C        F
But Joseph never saw a thing
Am                   C    G     F
His eyes wrapped in all these dreams
Am                   C     F
In coloured cloth and autumn grain
Am                      C     G      F
Coloured cloth covered with bloody stains

Em                Am    
and no love without the pain                          
F                 C
we learn to love again
Em            Am
I dreamed of mine
F             C
I dreamed of yours


[Verse 4]
                    
In the black I feel you                       

In the black I sense
                                     D7
Somewhere in the red, the colours end           
Suggest correction
Creating personal tab
Creating personal tab
You can edit any tab online and save it as your Personal.

You can edit, replace or remove any tab part or add personal notes – all changes will be seen only by you.

Personal tabs can be accessed anytime from any device, even offline.
Learn more »
comments
print report bad tab
3 comments total.
0 reply
Cash_way 21 Oct 08, 2009 04:15 PM

The D in this song should be played as a D7. Otherwise great tab!

0 reply
McAvro 225 May 11, 2010 06:35 AM

I agree that that it should be a D7, but everything else sounds great! Good job. And thanks for posting this tab.

0 reply
Martunes 258 Nov 15, 2011 07:25 PM

the "Dmin slide" is actually an Em/D (think about that... a Dmin a tone up... ;0 )
The D is a D7 like Cash_way and McAvro said but there's an F# in the bass do its a D7/F#. And there's an F bass in the F chord that isn't represented in the TAB but no big. I'm sure the fingerpicking pattern isn't right but close enough to enjoy this great song. I'm not going to bother correcting. Here is a few slight improvements on your TAB Swainier.

Dm                Em/D slide         Am                        G
e|--------1-----------------3-----------------0-------------------------------------------|
B|----3-----3---------5--------5--------1--------1--------1----------3----0---------------|
G|------2------2s4-------4--------4--------2----------2-----2--0--------------------------|
D|--0---------------0---------------------------------------------------------------------|
A|------------------------------------0-----------0---------------------------------------|
E|----------------------------------------------------------------3-----3-----------------|
-
In the white I die

Dm Em/D slide Am G
e|--------1-----------------3-----------------0-------------------------------------------|
B|----3-----3---------5--------5--------1--------1------1----1------1---0-----------------|
G|------2------2s4-------4--------4--------2----------------------------------------------|
D|--0---------------0-------------------------------0h2---------0h2--------0--------------|
A|------------------------------------0--------------------0------------------------------|
E|--------------------------------------------------------------------3-------------------|


Somewhere in the red, I see your eyes

Dmin Dmin slide Am G
e|--------1-----------------3-----------------0---------------3---------------------------|
B|----3-----3---------5--------5--------1--------1--0----3-------3------------------------|
G|------2------2s4-------4--------4--------2----------------------------------------------|
D|--0--------0-----0---------------------------------------0-------0----------------------|
A|------------------------------------0-----------0---------------------------------------|
E|----------------------------------------------------3----------------2------------------|

D7/F# F
e|-----------2-------------------------------1--------------------------------------------|
B|-----3--------3--------3-----3-------1--------1-------1--------3------------------------|
G|---------------------2-----2------------2----------2--------2---------------------------|
D|----------------------------------3-------------3--------3------------------------------|
A|----------------------------------------------------------------------------------------|
E|--2-----2---------2------2--------------------------------------------------------------|

guest
You may want to rate the tab now too:
select rating
Wanna post a correction for this tab? Suggest correction