Oops, an error
Loading. Please wait.

Young Glass Acoustic tab

100 views 3 this week
no commentswrite comment
1 2 3 4 5
2 more votes to show rating
add to favorites
×
Save as Personal and add changes to this tab that will be seen only by you. Learn more ›
×
You can save this tab as Personal to edit and correct it or add notes. All changes will be seen only by you. Learn more »
launch autoscroll
font size
0
reset
how to read this tab
guitar tuner
edit
Autoscroll
slow
fast
+/-
esc
set tempo
stop
Young Glass - Hey Rosetta!
Tabbed by: Evan Swain
Tuning: Standard Capo: 2nd fret            
 
[Verse 1]     
   v  ^ ^     v  ^ ^               v  ^   ^     v  ^   ^    v  ^   ^    v  ^   ^    v  ^   ^
e|-x--x-x-----x--x-x---------------x--x---x-----x--x---x----x--x---x----x--x---x----x--x---x--|
B|-x--x-x-----x--x-x---------------x--x---x-----x--0---0----x--0---0----x--0---0----x--0---0--|
G|-x--7-7-----x--7-7----------//---x--11--11----x--0---0----x--0---0----x--0---0----x--0---0--|
D|-x--7-7-----x--x-x---------------x--0---0-----x--0---0----x--0---0----x--0---0----x--0---0--|
A|-x--5-5-----x--4-4----------//---x--9---9-----x--10--10---x--10--10---x--10--10---x--10--10-|
E|-x--7-7-----x--5-5----------//---x--10--10----x--10--10---x--10--10---x--10--10---x--10--10-|

e|-x--x-x-----x--x-x---x--x-x------x--x---x-----x--x---x----x--x---x----x--x---x----x--x---x--||
B|-x--x-x-----x--x-x---x--x-x------x--x---x-----x--0---0----x--0---0----x--0---0----x--0---0--||
G|-x--7-7-----x--7-7---x--7-7-//---x--11--11----x--0---0----x--0---0----x--0---0----x--0---0--||
D|-x--7-7-----x--x-x---x--x-x------x--0---0-----x--0---0----x--0---0----x--0---0----x--0---0--||
A|-x--5-5-----x--4-4---x--4-4-//---x--9---9-----x--10--10---x--10--10---x--10--10---x--10--10-||
E|-x--7-7-----x--5-5---x--5-5-//---x--10--10----x--10--10---x--10--10---x--10--10---x--10--10-||x4

from under your sheets out into the hall
you sleepwalk through the rooms where you grew up
out through the porch and the old front doors
carried by words that you learned when you were small
down the stone steps and into the night
it's the boulevard and the hum of her hard lights
and when you open your eyes you're in central park
carried by the words that you learned when you woke up

[Chorus]: 
(Same strum pattern as before)
e|------x-------------x----------------x------------x-------------|
B|------x-------------x----------------x------------x-------------|
G|------7-------------x----------------11-----------7-------------|
D|------5-------------4----------------0------------5-------------|
A|------7-------------2-------//-------9------------7-------------|
E|------0-------------3-------//-------10-----------0-------------|                                           
          even though - i thought i was - all alone - i was wrong

e|------x-------------x------------------x---------x---------------x------------||
B|------x-------------x------------------x---------x---------------x------------||
G|------x-------------11-----------------7---------x---------------11-----------||
D|------4-------------0------------------5---------4---------------0------------||
A|------2------//-----9------------------7---------2-------//------9------------||
E|------3------//-----10-----------------0---------3-------//------10-----------||                            
          even though - i thought i was - all alone - i am not

[Verse 2]
   v  ^ ^     v  ^ ^               v  ^   ^     v  ^   ^    v  ^   ^    v  ^   ^    v  ^   ^
e|-x--x-x-----x--x-x---------------x--x---x-----x--x---x----x--x---x----x--x---x----x--x---x--|
B|-x--x-x-----x--x-x---------------x--x---x-----x--0---0----x--0---0----x--0---0----x--0---0--|
G|-x--7-7-----x--7-7----------//---x--11--11----x--0---0----x--0---0----x--0---0----x--0---0--|
D|-x--7-7-----x--x-x---------------x--0---0-----x--0---0----x--0---0----x--0---0----x--0---0--|
A|-x--5-5-----x--4-4----------//---x--9---9-----x--10--10---x--10--10---x--10--10---x--10--10-|
E|-x--7-7-----x--5-5----------//---x--10--10----x--10--10---x--10--10---x--10--10---x--10--10-|

e|-x--x-x-----x--x-x---x--x-x------x--x---x-----x--x---x----x--x---x----x--x---x----x--x---x--||
B|-x--x-x-----x--x-x---x--x-x------x--x---x-----x--0---0----x--0---0----x--0---0----x--0---0--||
G|-x--7-7-----x--7-7---x--7-7-//---x--11--11----x--0---0----x--0---0----x--0---0----x--0---0--||
D|-x--7-7-----x--x-x---x--x-x------x--0---0-----x--0---0----x--0---0----x--0---0----x--0---0--||
A|-x--5-5-----x--4-4---x--4-4-//---x--9---9-----x--10--10---x--10--10---x--10--10---x--10--10-||
E|-x--7-7-----x--5-5---x--5-5-//---x--10--10----x--10--10---x--10--10---x--10--10---x--10--10-||x4

you can hurry home to mama and your house of doors
get the bolt in the hole and you can close all the windows
but keeping out the killers and keeping out the creeps
isn't keeping out the doubt and the disbelief
as they look for god in them ivory halls
you can see her on the porch, listening to the radio,
singing that wanderer's song

[Chorus 2] 
(Strum muted, getting louder as it progresses)
e|------x-------------x----------------x------------x-------------|
B|------x-------------x----------------x------------x-------------|
G|------7-------------x----------------11-----------7-------------|
D|------5-------------4----------------0------------5-------------|
A|------7-------------2-------//-------9------------7-------------|
E|------0-------------3-------//-------10-----------0-------------|

      even though - i thought i was - all alone - i was wrong
                                            
e|------x-------------x------------------x---------x---------------x------------||
B|------x-------------x------------------x---------x---------------x------------||
G|------x-------------11-----------------7---------x---------------11-----------||
D|------4-------------x------------------5---------4---------------x------------||
A|------2------//-----9------------------7---------2-------//------9------------||
E|------3------//-----10-----------------0---------3-------//------10-----------||
        
      even though - i thought i was - all alone - i am not

e|------x-------------x----------------x------|
B|------x-------------x----------------x------|
G|------7-------------x----------------11-----|
D|------5-------------4----------------0------|
A|------7-------------2-------//-------9------|
E|------0-------------3-------//-------10-----|
                 
      even though - i thought i was - i was wrong - i am not!

        G         F#m         Em        D          A
e|------3----------2----------0---------5----------5----||
B|------3----------2----------0---------7----------5----||
G|------4----------2----------0---------7----------4----||
D|------5----------4----------2---------7----------7----||
A|------5----------4----------2---------5----------7----||
E|------3----------2----------0---------x----------5----||

G-F#m-Em-D-A          x 5
i am not(!)

[Bridge] 
(Finger pick the chorus, playing it soft to loud after each repetition)
e|------------------------------------------------------------------------------------------|
B|------------------------------------------------------------------------------------------|
G|------------------------------------------------------------------7----7----7----7----7---|
D|-----4----4----4----4----4-------0-----0-----0-----0-----0-------5----5----5----5----5--0-| Repeat x 6
A|----2----2----2----2----2--//---9-----9-----9-----9-----9--0----7----7----7----7----7-----|
E|---3----3----3----3----3--//--10----10----10----10----10-----0----------------------------|
                                           
and even if
you're scared stiff
you can trust in this
you can trust in this 
you can trust in this
you can trust in this

(Start strumming what you were picking)
e|------x-------------x------------------x---------x---------------x------------||
B|------x-------------x------------------x---------x---------------x------------||
G|------x-------------0------------------7---------x---------------0------------||
D|------4-------------0------------------5---------4---------------0------------||
A|------2------//-----9------------------7---------2-------//------9------------||
E|------3------//-----10-----------------0---------3-------//------10-----------||

[Outro]
G-F#m-Em-D-A 

************************************

//   slide up
\\   slide down
x    muted  
^    upstroke 
v    downstroke
 
************************************

            
            
Suggest correction
Creating personal tab
Creating personal tab
You can edit any tab online and save it as your Personal.

You can edit, replace or remove any tab part or add personal notes – all changes will be seen only by you.

Personal tabs can be accessed anytime from any device, even offline.
Learn more »
Give kudos to tab author, rate the tab!
1 2 3 4 5
comments
print report bad tab
guest
You may want to rate the tab now too:
select rating
Wanna post a correction for this tab? Suggest correction