Oops, an error
Loading. Please wait.

Brand New Moves Bass Tab

version 1
version 1

Whole song

820 views 36 this week
1 commentread comment
1 2 3 4 5
x 3
add to favorites
launch autoscroll
font size
0
reset
guitar tuner
Autoscroll
slow
fast
+/-
esc
set tempo
stop
Help us to improve Ultimate-Guitar.com Take our survey!
×
Author
[Verse]

    1   +   2   +   3   +   4   +     1   +   2   +   3   +   4   +
G|----------------------------------|---------------------------------|
D|o---------------------------------|---------------------------------|
A|o---------------------------------|---------------------------------|
E|--5-----5-5---3---5-------3-----1-|---1-1---1---0---1-------1-/---10|


    1    +   2   +   3   +   4   +     1    +   2   +   3   +   4   +
G|----------------------------------|----------------------------------|
D|----------------------------------|----------------------------------|
A|----------------------------------|----------------------------------|
E|---10-10--10--8---10------------10|---10-10--10--8---10----8-8-------|


   1   +   2   +   3   +   4   +     1   +   2   +   3   +   4   +
G|---------------------------------|---------------------------------|
D|---------------------------------|---------------------------------|
A|---------------------------------|---------------------------------|
E|-5-----5-5---3---5-------------1-|---1-1---1---0---1-------1-/---10|


    1    +   2   +   3   +   4   +     1    +   2   +   3   +   4   +
G|----------------------------------|-----------------------------------| 
D|----------------------------------|----------------------------------o|
A|----------------------------------|----------------------------------o|
E|---10-10--10--8---10----------8-10|---10-10--10--8---10----8-8--------|(x3)


[Chorus]

    1   +   2   +   3   +   4   +     1   +   2   +   3   +   4   +
G|----------------------------------|---------------------------------|
D|o---------------------------------|---------------------------------|
A|o---------------------------------|---------------------------------|
E|--5-----5-5---3---5-------------1-|---1-1---1---0---1-------1-/---10|


    1    +   2   +   3   +   4   +     1    +   2   +   3   +   4   +
G|----------------------------------|-----------------------------------|
D|----------------------------------|----------------------------------o|
A|----------------------------------|----------------------------------o|
E|---10-10--10--8---10----------8-10|---10-10--10--8---10------8--------|(x4)


************************************

| /  Slide up
| o  reprise

************************************
Suggest correction
Give kudos to tab author, rate the tab!
1 2 3 4 5
comments
print report bad tab
1 comment total.
0 reply
daniharvey 40 Sep 29, 2016 02:40 AM

great tab

guest
You may want to rate the tab now too:
select rating
Wanna post a correction for this tab? Suggest correction